Your Wildest Dreams by Warren Haynes Ukulele Chords

Posted on

If you are searching for Your Wildest Dreams ukulele chords, you already visit to the best site.
You can play versatile instrument Your Wildest Dreams using ukulele or guitar.
This song by Warren Haynes can also be played by that instruments.
=

Your Wildest Dreams chords has rhythm and included in Man in Motion (2011) album.
You can also get another musical genres, including jazz ukulele chords, country music ukulele chords, pop ukulele chords, world music ukulele chords, and rock ukulele chords here.

Your Wildest Dreams by Warren Haynes Ukulele Chords



E|--------------------------------------------------------------------|
B|--10----------------------------------------------------------------|
G|---9h11--9------------------------------------------9--9------9h11--|
D|------------119--------7--9-----------------9/11--------11---------|
A|------------------7--9--------7h9-----------------------------------|
E|--------------------------------------------------------------------|
E|-----------------------------------------------------------------------------|
B|-----------------------------------------------10----------------------------|
G|------------------------------------------------9-h11--9---------------------|
D|--------9--9h11r9-----------7--7h9r7---------------------11--7/9--7---7/97--|
A|--9/11-------------11--7/9---------------------------------------------------|
E|-----------------------------------------------------------------------------|
E|--------------------------------------------------|
B|----------10------10------10----------------------|
G|--------------------------------------------------|
D|----8/10------10------10------10------------------|
A|--------------------------------------------------|
E|--------------------------------------------------|


If you need me You know where you can find me I’ll be there, yeah, in your wildest dreams


E|----5/75---------------------5-----|
B|----5/75--------------------5------|
G|--------------5h6-----------6-------|
D|--------------5------------7--------|
A|--------------------------7---------|
E|-------------------------5----------|

[Verse 1]

The word out on the street Oh that you’re feeling guilty
Your decision was made in anger and haste


E|--12/14--14--12--5/7--5------------|
B|--12/14--14--12--5/7--5------------|
G|-----------------------------------|
D|-----------------------------------|
A|-----------------------------------|
E|-----------------------------------|

Say a love like ours can stand the test of time
Yes a love like ours is too good to waste

When I needed someone to hold me You were off and gone with someone else
And time don’t stop the pain the tears I’ve cried
Now you’re telling me we can put it all behind us
Yes you’re telling me honey this time I’ve changed


If you need me You know where you can find me I’ll be there, yeah, in your wildest dreams


E|----5/75---------------------5-----|
B|----5/75--------------------5------|
G|--------------5h6-----------6-------|
D|--------------5------------7--------|
A|--------------------------7---------|
E|-------------------------5----------|

[Verse 2]

Woman I can’t deny that what we had was real
So real that I might never be the same


E|--12/14--14--12--5/7--5------------|
B|--12/14--14--12--5/7--5------------|
G|-----------------------------------|
D|-----------------------------------|
A|-----------------------------------|
E|-----------------------------------|

Sometimes the flame burned brighter brighter than the sun
And we cooled ourselves in the soft summer rain

Yeah sometimes I still long to hold you to drown myself again
And time aint never gonna stop the pain the tears I’ve cried
I’m not trying to say I won’t be lost without you
I’m not trying to say I won’t break down


If you need me You know where you can find me I’ll be there, yeah, in your wildest dreams


E|----5/75---------------------5-----|
B|----5/75--------------------5------|
G|--------------5h6-----------6-------|
D|--------------5------------7--------|
A|--------------------------7---------|
E|-------------------------5----------|

in your wildest dr..ea..ms




To play the most songs, including Your Wildest Dreams by Warren Haynes by ukulele, the most crucial basic ukulele chords to learn are C chord, D chord, G chord, and Em chord.
These set you up to play a a lot of songs, and each of them is easy to learn.

Gravatar Image
Like to play Ukulele and Sudoku Game

Leave a Reply

Your email address will not be published. Required fields are marked *