Wonderboy by Tenacious D Ukulele Chords

Posted on

If you are looking for Wonderboy ukulele chords, you’ve come to the best place.
You can play versatile instrument Wonderboy using ukulele or guitar.
This song by Tenacious D can also be played by that instruments.
=

Wonderboy chords has rhythm and included in Tenacious D (2001) album.
You can also get another musical genres, including jazz ukulele chords, country music ukulele chords, pop ukulele chords, world music ukulele chords, and rock ukulele chords here.

Wonderboy by Tenacious D Ukulele Chords


Wonderboy by Tenacious D
Transcribed lyrics and guitar by JohnnyWu2©

Notes: This song was tabbed from a live version of Wonderboy (there is no version that isnt live), it was one of their earlier performances, it had jesus christ superstar and flash right before it, wonderboy comes in at about 4:02 into the song. So if the words or somthing are different then make sure you are listening to the same mp3.
Part I: This is the opening riff, the same chords are strummed for the main verse. Hold the chord but pick the parts like the tab shows you, in other words change to a Dm to make it easier and make you ready for the pull offs.


e-----2---------3p2--------------1p0------1p0-------------
b-------3------------3----2------------3----------3----------
g---------2------------2------------------2----------2-------
d-0----------------------------0------------------------------
a--------------------------------------------------------------
e--------------------------------------------------------------

then (this is tricky; numbers on top finger numbers; 1index (pointer) 2mid; Use those or whatever works)
[D/C] [D/B][D/A]
[(]


e------2--------2-----2------2--------2------2-----2------2------2----------------2----
b--------3--------3-------------3--------3------------3------3--------2---3---1---3----
g-----------2-------2--------------0--------0------------0------0-----2---3---0---2----
d--0---------------------------------------------------------------------2---3---2---0----
a---------------------------3---------------------2--------------------0-----1---3--------
e--------------------------------------------------------------------------------------------

Lyrics:
High above the mucky muck castle made of cloud
there sits wonderboy sitting oh so proudly.
not much to say when you[D/C]’re high above the mucky muck y[D/B]eahhhh yeah
wonderboy, what is the secret of your power
wonderboyyyy won[D/C]’t you take me f[D/B]ar away from the [D/A]mucky muck man


Part II: This is part is like the second section of part I, the exception is that it walks down to deeper notes and then walks back up. So you have……
D D/C D/B D/A D/G D/F# E (x4)
[(] [2)]


e------2--------2-----2------2--------2------2-----2------2------2---3---- ---2----2----2--2---2-------------0---0
b--------3--------3-------------3--------3------------3------3----------2--- -----3----3-------3---3----------0----0
g-----------2-------2--------------0--------0------------0------0---------0then-------0----0-------0---0-------2-----2
d--0------------------------------------------------------------------------ --------------------------------2-------2
a---------------------------3---------------------2--------------------0----- ------------------------------1---------1
e----------------------------------------------------------------------------- -3--------------2-----------0----------0

then


e--0---1---2--3--4--4----5---5------6-------------------------------------
b--0---1---2--3--4--5----6----6---5---------------------------------------
g--1---2---3--4--5--5----6-----6-6----------------------------------------
d-----------------------------------------------------------------------------
a-----------------------------------------------------------------------------
e-----------------------------------------------------------------------------

Well now its time for me to tell you about young nasty man
who is the archrival and nemesis of wonderboy
with powers comparable to wonderboy!
What powers, you may ask?[D/C]
How about the power of flight[D/B]?
And what that is specifically is[D/A] levitation, with powers to move inside the su[D/G]n,
and forwards, and up, backwards[D/F#]
How about the power of telekenesis?
Has anyone seen it in action? I doubt it, i severly doubt it, rare…
How about the power to move you?

(applause then back to part I)

The history of wonderboy and young nastyman, rigga goo goo rigga goo goo
the secret to be told, and a g[D/C]old chest to be bold, blas[D/B]ting forth with three part harmo[D/A]ny yeah!!!
Well wonderboy and young nastyman joined forces,
and they formed a band the likes of which had never been seen.
And they called themselves Tenacious D, thats right me, and [D/C]KG, and me[D/B] , Ten[D/A]acious Deee[C-C]eeee.[D-D-D]
(see below)
Come fly with me.

(the chords continue and i’m not going to tab out all of that next bit, here is some of it. bbend Rrelease)


e-10--------10--12--12b½R»12--10-----------
b----10-10-------------------------------11--10--
g----------------------------------------------------
d----------------------------------------------------
a----------------------------------------------------
e----------------------------------------------------

There ya go guys….any more comedic stuff would be greatly appreciated!

To play the most songs, including Wonderboy by Tenacious D by ukulele, the most important basic ukulele chords to learn are C chord, D chord, G chord, and Em chord.
These set you up to play a ton of songs, and each of them is easy to master.

Gravatar Image
Like to play Ukulele and Sudoku Game

Leave a Reply

Your email address will not be published. Required fields are marked *