Today (Watch Me Shine) by Everlast Ukulele Chords

Posted on

If you are looking for Today (Watch Me Shine) ukulele chords, you already come to the right place.
You can play versatile instrument Today (Watch Me Shine) using ukulele or guitar.
This song by Everlast can also be played by that instruments.
=

Today (Watch Me Shine) chords has rhythm and included in Whitey Ford Sings the Blues (1998) album.
You can also get other musical genres, including jazz ukulele chords, country music ukulele chords, pop ukulele chords, world music ukulele chords, and rock ukulele chords here.

Today (Watch Me Shine) by Everlast Ukulele Chords


Everlast – Today (Watch me Shine)

Not exactly the same as on cd, but it sounds ok…

Normal Tuning

0:01 – 0:13


e|------|---0---3--|--0-----0---|
b|------|---0---0--|--1-----2---|
g|----0-|.--1---0--|--0-----2--.|
d|-0h2--|.--2---0--|--2-----2--.|
a|------|---2---2--|--3-----0---|
E|------|---0---3--|------------|

0:14 – 1:13

Yesterday…

E G C A repeat 9 times


e|---0---3--|--0-----0---|
b|---0---0--|--1-----2---|
g|.--1---0--|--0-----2--.|
d|.--2---0--|--2-----2--.|
a|---2---2--|--3-----0---|
E|---0---3--|------------|

1:14 – 1:42

First Guitar
E E A repeat 3 times


e|---0-----|-0---0---|
b|---0-----|-0---2---|
g|.--1-----|-1---2--.|
d|.--2-----|-2---2--.|
a|---2-----|-2---0---|
E|---0-----|-0-------|

Second Guitar
3x


e|---0---0-----0--5--3-3----|----0---0---0--5--3-3-|
b|-3---3---3------------3---|--3---3---3-----------|
g|.------------------------.|----------------------|
d|.------------------------.|----------------------|
a|--------------------------|----------------------|
E|--------------------------|----------------------|

1:43 – 2:30

E G C A repeat 7 times


e|---0---3--|--0-----0---|
b|---0---0--|--1-----2---|
g|.--1---0--|--0-----2--.|
d|.--2---0--|--2-----2--.|
a|---2---2--|--3-----0---|
E|---0---3--|------------|

2:31 – 2:56

First Guitar
E E A repeat 3 times


e|---0-----|-0---0---|
b|---0-----|-0---2---|
g|.--1-----|-1---2--.|
d|.--2-----|-2---2--.|
a|---2-----|-2---0---|
E|---0-----|-0-------|

Second Guitar
3x


e|---0---0-----0--5--3-3----|----0---0---0--5--3-3-|
b|-3---3---3------------3---|--3---3---3-----------|
g|.------------------------.|----------------------|
d|.------------------------.|----------------------|
a|--------------------------|----------------------|
E|--------------------------|----------------------|

2:57 – 3:12

Solo (sounds some like this)

(no picking) (no picking)


e|--------------------------------|-------------------------------|
b|-5-7b8--------------------------|--5-7b8------------------------|
g|--------b7rb5p4-----------------|---------b7rb5p4---------------|
d|----------------5-h7-p5---7b9---|-----------------5h7p5-7b9-7b9-|
a|------------------------------7-|-------------------------------|
E|--------------------------------|-------------------------------|

3:13 – 4:00

E G C A repeat 7 times


e|---0---3--|--0-----0---|
b|---0---0--|--1-----2---|
g|.--1---0--|--0-----2--.|
d|.--2---0--|--2-----2--.|
a|---2---2--|--3-----0---|
E|---0---3--|------------|

4:01 – 4:26

First Guitar
E E A repeat 3 times


e|---0-----|-0---0---|
b|---0-----|-0---2---|
g|.--1-----|-1---2--.|
d|.--2-----|-2---2--.|
a|---2-----|-2---0---|
E|---0-----|-0-------|

Second Guitar
3x


e|---0---0-----0--5--3-3----|----0---0---0--5--3-3-|
b|-3---3---3------------3---|--3---3---3-----------|
g|.------------------------.|----------------------|
d|.------------------------.|----------------------|
a|--------------------------|----------------------|
E|--------------------------|----------------------|

4:27 – 5:02

Solo (Some like this)


e|-----------------------------------------------------------|
b|-5/8-/10--5--/8--/10--5--/8--/10--5----/8----/10----/12-|
g|-----------------------------------------------------------|
d|-----------------------------------------------------------|
a|-----------------------------------------------------------|
E|-----------------------------------------------------------|

Have fun 🙂

To play the most songs, including Today (Watch Me Shine) by Everlast by ukulele, the most crucial basic ukulele chords to learn are C chord, D chord, G chord, and Em chord.
These set you up to play a ton of songs, and each of them is easy to master.

Gravatar Image
Like to play Ukulele and Sudoku Game

Leave a Reply

Your email address will not be published. Required fields are marked *