This Boy by Dear and the Headlights Ukulele Chords

Posted on

If you are looking for This Boy ukulele chords, you have come to the best site.
You can play versatile instrument This Boy using ukulele or guitar.
This song by Dear and the Headlights can also be played by that instruments.
=

This Boy chords has Ballade rhythm and included in Falling Into Infinity (1997) album.
You can also find another musical genres, including jazz ukulele chords, country music ukulele chords, pop ukulele chords, world music ukulele chords, and rock ukulele chords here.

This Boy by Dear and the Headlights Ukulele Chords


None of the other tabs showed strumming patterns or the variations of the chords so here you go.
The words below the measures are the words that the chord changes are on.
Just play it in this order and it’s exactly how the song goes. Good luck.

Comments/Corrections welcome.

Tuning: Standard – CAPO 3rd fret

+ down strum
^ up strum
h hammer-on
~ let ring

Intro:

+ + + ^ + ^ ^ ^ + ^ + ^ + + + ^ + ^ ^ + ^ + ^ + ^


e|------0---0-0-0-0---0---0-0-0-0-0-----3---3-3-3-2---2-2-2-3-2-2-2----------|
B|------0---0-0-0-0h1-1---1-1-1-1-1-----3---3-3-3-3---3-3-3-3-3-3-3----------|
G|------0---0-0-0-0---0---0-0-0-0-0-----0---0-0-0-2---2-2-2-2-2-2-2----------|
D|------2---2-2-2-2---2---2-0-2-0-2-----0---0-0-0-0---0-0-0-0-0-0-0----------|
A|------2---2-2-2-3---3---3-3-3-3-3-----2---2-2-2----------------------------|
E|---0--0---0-0-0-------------------3---3---3-3-3----------------------------|

+ + + ^ + ^ ^ ^ + ^ + ^ + + + ^ + ^ ^ + ^ + ^ + ^


e|------0---0-0-0-0---0---0-0-0-0-0-----3---3-3-3-2---2-2-2-3-2-2-2----------|
B|------0---0-0-0-0h1-1---1-1-1-1-1-----3---3-3-3-3---3-3-3-3-3-3-3----------|
G|------0---0-0-0-0---0---0-0-0-0-0-----0---0-0-0-2---2-2-2-2-2-2-2----------|
D|------2---2-2-2-2---2---2-0-2-0-2-----0---0-0-0-0---0-0-0-0-0-0-0----------|
A|------2---2-2-2-3---3---3-3-3-3-3-----2---2-2-2----------------------------|
E|---0--0---0-0-0-------------------3---3---3-3-3----------------------------|

Verse:

+ + + ^ + ^ ^ ^ + ^ + ^ + + + ^ + ^ ^ + ^ + ^ + ^


e|------0---0-0-0-0---0---0-0-0-0-0-----3---3-3-3-2---2-2-2-2-2-2-2----------|
B|------0---0-0-0-1---1---1-1-1-1-1-----3---3-3-3-3---3-3-3-3-3-3-3----------|
G|------0---0-0-0-0---0---0-0-0-0-0-----0---0-0-0-2---2-2-2-2-2-2-2----------|
D|------2---2-2-2-2---2---2-2-2-2-2-----0---0-0-0-0---0-0-0-0-0-0-0----------|
A|------2---2-2-2-3---3---3-3-3-3-3-----2---2-2-2----------------------------|
E|---0--0---0-0-0-------------------3---3---3-3-3----------------------------|

This… play… today… has…

+ + + ^ + ^ ^ ^ + ^ + ^ + + + ^ + ^ ^ + ^ + ^ + ^


e|------0---0-0-0-0---0---0-0-0-0-0-----3---3-3-3-2---2-2-2-2-2-2-2----------|
B|------0---0-0-0-1---1---1-1-1-1-1-----3---3-3-3-3---3-3-3-3-3-3-3----------|
G|------0---0-0-0-0---0---0-0-0-0-0-----0---0-0-0-2---2-2-2-2-2-2-2----------|
D|------2---2-2-2-2---2---2-2-2-2-2-----0---0-0-0-0---0-0-0-0-0-0-0----------|
A|------2---2-2-2-3---3---3-3-3-3-3-----2---2-2-2----------------------------|
E|---0--0---0-0-0-------------------3---3---3-3-3----------------------------|

This… work… pay… left…

Bridge:

+ + ^ + ^ ^ ^ + ^ + ^ + + ^ ^ + ^ + + ^ ^ +


e|------0---0-0-0-0---0---0-0-0-0-0---3---3-3---3-3-3-2---2-2---2-2----------|
B|------1---1-1-1-1---1---1-1-1-1-1---3---3-3---3-3-3-3---3-3---3-3----------|
G|------2---2-2-2-0---0---0-0-0-0-0---0---0-0---0-0-0-2---2-2---2-2----------|
D|------2---2-2-2-2---2---2-2-2-2-2---0---0-0---0-0-0-0---0-0---0-0----------|
A|------0---0-0-0-3---3---3-3-3-3-3---2---2-2---2-2-2------------------------|
E|------------------------------------3---3-3---3-3-3------------------------|

Let’s.side… ride… while…

+ + ^ + ^ ^ ^ + ^ + ^ + + ^ ^ + ^ + + ^ ^ +


e|------0---0-0-0-0---0---0-0-0-0-0---3---3-3---3-3-3-2---2-2---2-2----------|
B|------1---1-1-1-1---1---1-1-1-1-1---3---3-3---3-3-3-3---3-3---3-3----------|
G|------2---2-2-2-0---0---0-0-0-0-0---0---0-0---0-0-0-2---2-2---2-2----------|
D|------2---2-2-2-2---2---2-2-2-2-2---0---0-0---0-0-0-0---0-0---0-0----------|
A|------0---0-0-0-3---3---3-3-3-3-3---2---2-2---2-2-2------------------------|
E|------------------------------------3---3-3---3-3-3------------------------|

No… caught… thought… cried…

Chorus Part I:
+ + + ^ + ^ ^ ^ + ^ + + + ^ + ^ ^ ^ + ^ + + + ^ + ^ ^ ^ + ^


e|-----3--3-3-3-2--2--2-2-2----0--0-0-0-3--3--3-3-3----3--3-3-3-2--2--2-2-2--|
B|-----3--3-3-3-0--0--0-0-0----0--0-0-0-4--4--4-4-4----3--3-3-3-0--0--0-0-0--|
G|-----0--0-0-0-2--2--2-2-2----0--0-0-0-5--5--5-5-5----0--0-0-0-2--2--2-2-2--|
D|-----0--0-0-0-1--1--1-1-1----2--2-2-2-5--5--5-5-5----0--0-0-0-1--1--1-1-1--|
A|-----2--2-2-2-2--2--2-2-2----2--2-2-2-3--3--3-3-3----2--2-2-2-2--2--2-2-2--|
E|--3--3--3-3-3-------------0--0--0-0-0-------------3--3--3-3-3--------------|

I’m… hasn’t… I’m… you… I’m…. for…

+ ^ + ^ ^ + ^ + + ^ ^ + +


e|--0-0-0-0---0-0-0-0---0-0---0-0-----3~-------------------------------------|
B|--1-1-1-1---1-1-1-2---2-2---2-2-----4~-------------------------------------|
G|--0-0-0-0---0-0-0-2---2-2---2-2-----5~-------------------------------------|
D|--2-2-2-2---2-2-2-2---2-2---2-2-----5~-------------------------------------|
A|--3-3-3-3---3-3-3-0---0-0---0-0-----3~-------------------------------------|
E|---------------------------------------------------------------------------|

years… down… years…

Verse:

+ + + ^ + ^ ^ ^ + ^ + ^ + + + ^ + ^ ^ + ^ + ^ + ^


e|------0---0-0-0-0---0---0-0-0-0-0-----3---3-3-3-2---2-2-2-2-2-2-2----------|
B|------0---0-0-0-1---1---1-1-1-1-1-----3---3-3-3-3---3-3-3-3-3-3-3----------|
G|------0---0-0-0-0---0---0-0-0-0-0-----0---0-0-0-2---2-2-2-2-2-2-2----------|
D|------2---2-2-2-2---2---2-2-2-2-2-----0---0-0-0-0---0-0-0-0-0-0-0----------|
A|------2---2-2-2-3---3---3-3-3-3-3-----2---2-2-2----------------------------|
E|---0--0---0-0-0-------------------3---3---3-3-3----------------------------|

This… best… all… no…

+ + + ^ + ^ ^ ^ + ^ + ^ + + + ^ + ^ ^ + ^ + ^ + ^


e|------0---0-0-0-0---0---0-0-0-0-0-----3---3-3-3-2---2-2-2-2-2-2-2----------|
B|------0---0-0-0-1---1---1-1-1-1-1-----3---3-3-3-3---3-3-3-3-3-3-3----------|
G|------0---0-0-0-0---0---0-0-0-0-0-----0---0-0-0-2---2-2-2-2-2-2-2----------|
D|------2---2-2-2-2---2---2-2-2-2-2-----0---0-0-0-0---0-0-0-0-0-0-0----------|
A|------2---2-2-2-3---3---3-3-3-3-3-----2---2-2-2----------------------------|
E|---0--0---0-0-0-------------------3---3---3-3-3----------------------------|

This… draw… dance… don’t…

Bridge:

+ + ^ + ^ ^ ^ + ^ + ^ + + ^ ^ + ^ + + ^ ^ +


e|------0---0-0-0-0---0---0-0-0-0-0---3---3-3---3-3-3-2---2-2---2-2----------|
B|------1---1-1-1-1---1---1-1-1-1-1---3---3-3---3-3-3-3---3-3---3-3----------|
G|------2---2-2-2-0---0---0-0-0-0-0---0---0-0---0-0-0-2---2-2---2-2----------|
D|------2---2-2-2-2---2---2-2-2-2-2---0---0-0---0-0-0-0---0-0---0-0----------|
A|------0---0-0-0-3---3---3-3-3-3-3---2---2-2---2-2-2------------------------|
E|------------------------------------3---3-3---3-3-3------------------------|

We’ll.play… dark… see…

+ + ^ + ^ ^ ^ + ^ + ^ + + ^ ^ + ^ + + ^ ^ +


e|------0---0-0-0-0---0---0-0-0-0-0---3---3-3---3-3-3-2---2-2---2-2----------|
B|------1---1-1-1-1---1---1-1-1-1-1---3---3-3---3-3-3-3---3-3---3-3----------|
G|------2---2-2-2-0---0---0-0-0-0-0---0---0-0---0-0-0-2---2-2---2-2----------|
D|------2---2-2-2-2---2---2-2-2-2-2---0---0-0---0-0-0-0---0-0---0-0----------|
A|------0---0-0-0-3---3---3-3-3-3-3---2---2-2---2-2-2------------------------|
E|------------------------------------3---3-3---3-3-3------------------------|

Well… make… clothes… pleased…

Chorus Part I+II:

+ + + ^ + ^ ^ ^ + ^ + + + ^ + ^ ^ ^ + ^ + + + ^ + ^ ^ ^ + ^


e|-----3--3-3-3-2--2--2-2-2----0--0-0-0-3--3--3-3-3----3--3-3-3-2--2--2-2-2--|
B|-----3--3-3-3-0--0--0-0-0----0--0-0-0-4--4--4-4-4----3--3-3-3-0--0--0-0-0--|
G|-----0--0-0-0-2--2--2-2-2----0--0-0-0-5--5--5-5-5----0--0-0-0-2--2--2-2-2--|
D|-----0--0-0-0-1--1--1-1-1----2--2-2-2-5--5--5-5-5----0--0-0-0-1--1--1-1-1--|
A|-----2--2-2-2-2--2--2-2-2----2--2-2-2-3--3--3-3-3----2--2-2-2-2--2--2-2-2--|
E|--3--3--3-3-3-------------0--0--0-0-0-------------3--3--3-3-3--------------|

I’m… hasn’t… I’m… you… I’m…. for…

+ ^ + ^ ^ + ^ + + ^ ^ +


e|--0-0-0-0---0-0-0-0---0-0---0-0--------------------------------------------|
B|--1-1-1-1---1-1-1-2---2-2---2-2--------------------------------------------|
G|--0-0-0-0---0-0-0-2---2-2---2-2--------------------------------------------|
D|--2-2-2-2---2-2-2-2---2-2---2-2--------------------------------------------|
A|--3-3-3-3---3-3-3-0---0-0---0-0--------------------------------------------|
E|---------------------------------------------------------------------------|

years… down…

+ + + ^ + ^ ^ ^ + ^ + + + ^ + ^ ^ ^ + ^ + + + ^ + ^ ^ ^ + ^


e|-----3--3-3-3-2--2--2-2-2----0--0-0-0-3--3--3-3-3----3--3-3-3-2--2--2-2-2--|
B|-----3--3-3-3-0--0--0-0-0----0--0-0-0-4--4--4-4-4----3--3-3-3-0--0--0-0-0--|
G|-----0--0-0-0-2--2--2-2-2----0--0-0-0-5--5--5-5-5----0--0-0-0-2--2--2-2-2--|
D|-----0--0-0-0-1--1--1-1-1----2--2-2-2-5--5--5-5-5----0--0-0-0-1--1--1-1-1--|
A|-----2--2-2-2-2--2--2-2-2----2--2-2-2-3--3--3-3-3----2--2-2-2-2--2--2-2-2--|
E|--3--3--3-3-3-------------0--0--0-0-0-------------3--3--3-3-3--------------|

love… forgive… try… all… know…. arms…

+ ^ + ^ ^ + ^ ^ + +


e|--0-0-0-0---0---0-0-0-----3~--------------3~-------------------------------|
B|--1-1-1-1---1---2-2-2-----4~--------------4~-------------------------------|
G|--0-0-0-0---0---2-2-2-----5~--------------5~-------------------------------|
D|--2-2-2-2---2---2-2-2-----5~--------------5~-------------------------------|
A|--3-3-3-3---3---0-0-0-----3~--------------3~-------------------------------|
E|---------------------------------------------------------------------------|

The… more… know… Well…

+ + ^ + ^ + ^ ^ + + ^ + ^ + ^ ^


e|---2---2-2-2-2-3-2---2------2---2-2-2-2-3-2---2----------------------------|
B|---3---3-3-3-3-3-3---3------3---3-3-3-3-3-3---3----------------------------|
G|---2---2-2-2-2-2-2---2------2---2-2-2-2-2-2---2----------------------------|
D|---0---0-0-0-0-0-0---0------0---0-0-0-0-0-0---0----------------------------|
A|---------------------------------------------------------------------------|
E|---------------------------------------------------------------------------|

I… I…

+ + ^ + ^ + ^ ^ + + ^ + ^ + ^ ^


e|---2---2-2-2-2-3-2---2------2---2-2-2-2-3-2---2----------------------------|
B|---3---3-3-3-3-3-3---3------3---3-3-3-3-3-3---3----------------------------|
G|---2---2-2-2-2-2-2---2------2---2-2-2-2-2-2---2----------------------------|
D|---0---0-0-0-0-0-0---0------0---0-0-0-0-0-0---0----------------------------|
A|---------------------------------------------------------------------------|
E|---------------------------------------------------------------------------|

I… I…

Chorus Part I+II:

+ + + ^ + ^ ^ ^ + ^ + + + ^ + ^ ^ ^ + ^ + + + ^ + ^ ^ ^ + ^


e|-----3--3-3-3-2--2--2-2-2----0--0-0-0-3--3--3-3-3----3--3-3-3-2--2--2-2-2--|
B|-----3--3-3-3-0--0--0-0-0----0--0-0-0-4--4--4-4-4----3--3-3-3-0--0--0-0-0--|
G|-----0--0-0-0-2--2--2-2-2----0--0-0-0-5--5--5-5-5----0--0-0-0-2--2--2-2-2--|
D|-----0--0-0-0-1--1--1-1-1----2--2-2-2-5--5--5-5-5----0--0-0-0-1--1--1-1-1--|
A|-----2--2-2-2-2--2--2-2-2----2--2-2-2-3--3--3-3-3----2--2-2-2-2--2--2-2-2--|
E|--3--3--3-3-3-------------0--0--0-0-0-------------3--3--3-3-3--------------|

I’m… hasn’t… I’m… you… I’m…. for…

+ ^ + ^ ^ + ^ + + ^ ^ +


e|--0-0-0-0---0-0-0-0---0-0---0-0--------------------------------------------|
B|--1-1-1-1---1-1-1-2---2-2---2-2--------------------------------------------|
G|--0-0-0-0---0-0-0-2---2-2---2-2--------------------------------------------|
D|--2-2-2-2---2-2-2-2---2-2---2-2--------------------------------------------|
A|--3-3-3-3---3-3-3-0---0-0---0-0--------------------------------------------|
E|---------------------------------------------------------------------------|

years… down…

+ + + ^ + ^ ^ ^ + ^ + + + ^ + ^ ^ ^ + ^ + + + ^ + ^ ^ ^ + ^


e|-----3--3-3-3-2--2--2-2-2----0--0-0-0-3--3--3-3-3----3--3-3-3-2--2--2-2-2--|
B|-----3--3-3-3-0--0--0-0-0----0--0-0-0-4--4--4-4-4----3--3-3-3-0--0--0-0-0--|
G|-----0--0-0-0-2--2--2-2-2----0--0-0-0-5--5--5-5-5----0--0-0-0-2--2--2-2-2--|
D|-----0--0-0-0-1--1--1-1-1----2--2-2-2-5--5--5-5-5----0--0-0-0-1--1--1-1-1--|
A|-----2--2-2-2-2--2--2-2-2----2--2-2-2-3--3--3-3-3----2--2-2-2-2--2--2-2-2--|
E|--3--3--3-3-3-------------0--0--0-0-0-------------3--3--3-3-3--------------|

love… forgive… try… all… know…. arms…

+ ^ + ^ ^ + ^ ^ +


e|--0-0-0-0---0---0-0-0-----3~-----------------------------------------------|
B|--1-1-1-1---1---2-2-2-----4~-----------------------------------------------|
G|--0-0-0-0---0---2-2-2-----5~-----------------------------------------------|
D|--2-2-2-2---2---2-2-2-----5~-----------------------------------------------|
A|--3-3-3-3---3---0-0-0-----3~-----------------------------------------------|
E|---------------------------------------------------------------------------|

The… more… know…

Chorus Part II:


e|------------3----------2------------0----------3------------3----------2---|
B|----------3----------0------------0----------4------------3----------0-----|
G|--------0----------2------------0----------5------------0----------2-------|
D|------0----------1------------2----------5------------0----------1---------|
A|----2----------2------------2----------3------------2----------2-----------|
E|--3-----------------------0-----------------------3------------------------|

love… forgive… try… all… know… arms…


[+] [+] [+]


e|-----0~------0~---------3~--------------------------------3~---------------|
B|-----1~------2~---------4~---------------------0-----3----3~---------------|
G|-----0~------2~---------5~-------------------0---0-----0--0~---------------|
D|-----2~------2~---------5~-----------------0-------0------0~---------------|
A|-----3~------0~---------3~---------------2---------------------------------|
E|---------------------------------------3-----------------------------------|

The… more.. Well…go

To play the most songs, including This Boy by Dear and the Headlights by ukulele, the most important basic ukulele chords to learn are C chord, D chord, G chord, and Em chord.
These set you up to play a ton of songs, and each of them is easy to master.

Gravatar Image
Like to play Ukulele and Sudoku Game

Leave a Reply

Your email address will not be published. Required fields are marked *