The Stars Are Out by Psyched Up Janis Ukulele Chords

Posted on

If you are looking for The Stars Are Out ukulele chords, you’ve visit to the right place.
You can play versatile instrument The Stars Are Out using ukulele or guitar.
This song by Psyched Up Janis can also be played by that instruments.
=

The Stars Are Out chords has rhythm and included in Beats Me (1997) album.
You can also get other musical genres, including jazz ukulele chords, country music ukulele chords, pop ukulele chords, world music ukulele chords, and rock ukulele chords here.

The Stars Are Out by Psyched Up Janis Ukulele Chords


‘The stars are out’ by Psyched up Janis
Tabbed by Kristian Hejlesen

Intro:


e|---------------------|----------------|-------0-------|---------------|
H|---------------------|----------------|-------1-------|-8--8--8--8--8-|
G|-9---9---9h10-9---9--|-5--5--5h7-5--5-|-2--2-----2--2-|-7--7--7--7--7-|
D|-10--10--10---10--10-|-7--7--7---7--7-|-3--3-----3--3-|-5--5--5--5--5-|
A|---------------------|----------------|---------------|---------------|
E|---------------------|----------------|---------------|---------------|
e|---------------------|----------------|-------0-------|---------------|
H|---------------------|----------------|-------1-------|-8--8--8--8--8-|
G|-9---9---9h10-9---9--|-5--5--5h7-5--5-|-2--2-----2--2-|-7--7--7--7--7-|
D|-10--10--10---10--10-|-7--7--7---7--7-|-3--3-----3--3-|-5--5--5--5--5-|
A|---------------------|----------------|---------------|---------------|
E|---------------------|----------------|---------------|---------------|

Here my hands are tied to you


e|---------------------|----------------|-------0-------|-3---|
H|---------------------|----------------|-------1-------|-3---|
G|-9---9---9h10-9---9--|-5--5--5h7-5--5-|-2--2-----2--2-|-0---|
D|-10--10--10---10--10-|-7--7--7---7--7-|-3--3-----3--3-|-0---|
A|---------------------|----------------|---------------|-2---|
E|---------------------|----------------|---------------|-3---|

Forever and ever I’m stuck with you

Chorus:


e|---0-0-0-0-0-|
H|---5-5-6-5-3-|
G|-------------|
D|-------------|
A|-------------|
E|-------------|

Fmaj C/g
I can’t play now
Cuz the stars are out and so cool
And I can’t go home
Fmaj C/g
On my wall now
There’s not a space for you

2. verse:

C /h Am /g Fmaj G
Here I turn and burn all night
C /h Am /g Fmaj G
Within there’s a river and it roars and it screams
C /h Am /g Fmaj G
It rages with lust and fear and time
C /h Am /g Fmaj G
I’m stuck with you and I can’t explain

Chorus

| Fmaj | C/g | Dm | Fmaj G |
| Fmaj | C/g | Dm | F Ab |2/4 Bb |4/4 C |
| F Ab |2/4 Bb |

3. verse:

C /h Am /g Fmaj G
Now I whisper the words of truth
C /h Am /g Fmaj G
I’m stuck with you and it fucks me up

Chorus:

Fmaj C/g
I can’t play now
Cuz the stars are out and so cool
And I can’t go home
Fmaj C/g
On my wall now
There’s not a space for you

Fmaj C/g
I can’t play now
Cuz the stars are out and so cool
And I can’t go home
Fmaj C/g
On my wall now
There’s not a space for you

| F Ab |2/4 Bb |4/4 C |
| F Ab |2/4 Bb |

4.verse:

Play the guitar like in Intro along with the lyrics

Solo:

Based on the chords of the Chorus

Outro:

| F Ab | 2/4 Bb |4/4 C |
| F Ab | 2/4 Bb |4/4 C |
| F Ab | 2/4 (break) | 4/4 C/g |

To play the this songs, including The Stars Are Out by Psyched Up Janis by ukulele, the most important basic ukulele chords to learn are C chord, D chord, G chord, and Em chord.
These set you up to play a ton of songs, and each of them is easy to master.

Gravatar Image
Like to play Ukulele and Sudoku Game

Leave a Reply

Your email address will not be published. Required fields are marked *