The Future by The Van Jets Ukulele Chords

Posted on

If you are searching for The Future ukulele chords, you already come to the right place.
You can play versatile instrument The Future using ukulele or guitar.
This song by The Van Jets can also be played by that instruments.
=

The Future chords has rhythm and included in Cat Fit Fury! (2010) album.
You can also find other musical style, including jazz ukulele chords, country music ukulele chords, pop ukulele chords, world music ukulele chords, and rock ukulele chords here.

The Future by The Van Jets Ukulele Chords


The Van Jets – The Future

Chords
E A D G B e
| | | | | |
| | | | | |
| | | | | |
Am x 0 2 2 1 0
| | | | | |
C x 3 5 5 5 3
| | | | | |
D7 0 5 7 7 0 0

Intro


e|-------7-----|
B|---6-------6-|
G|-7---7---7---|
D|-------------| X4
A|-------------|
E|-------------|

Fill


e|-----------------------------------00000-|
B|-----------------------------------00000-|
G|-----------------------------------77777-| X2
D|-----------------------------------77777-|
A|-----------------------------------55555-|
E|-5-4-5-4-5--5-4-5-4-5--5-4-5-4-5---00000-|

Verse 1

Wicked warriors grown up on bites and bore
Wear the uniforms but desert the war

Bridge

Try not to…
Try not to understand it
Too young to choose
Still want to be a bird, cut loose

Chorus

Don’t mind the future
We’ll live, we’ll live, we’ll live, we’ll live again
In a time when you want it
It’s all, it’s all, it’s all in your head
Don’t mind the future
We’ll live, we’ll live, we’ll live in your head
in your head

Verse 2
Put your life on hold, for now, we never get old
Spending father’s cash on Moroccan hash

Bridge

Try not to…
Try not to understand it
Too young to choose
Still want to be a bird, cut loose

Chorus

Don’t mind the future
We’ll live, we’ll live, we’ll live, we’ll live again
In a time when you want it
It’s all, it’s all, it’s all in your head
Don’t mind the future
We’ll live, we’ll live, we’ll live in your head
in your head, in your head

Fill


e|-----------------------------------00000-|
B|-----------------------------------00000-|
G|-----------------------------------77777-| X2
D|-----------------------------------77777-|
A|-----------------------------------55555-|
E|-5-4-5-4-5--5-4-5-4-5--5-4-5-4-5---00000-|

Bridge

Try not to…
Try not to understand it
Too young to choose
Still want to be a bird, cut loose

Riff


e|-------1-------------0-------------0-------------3-----|
B|---1-------1-----1-------1-----1-------1-----0-------0-|
G|-2---2---2-----0---0---0-----2---2---2-----0---0---0---|
D|-------------------------------------------------------|
A|-------------------------------------------------------|
E|-------------------------------------------------------|

F(Riff) C (Riff)
Don’t mind the future
Am(Riff) G(Riff)
We’ll live, we’ll live, we’ll live, we’ll live again
F(Riff) C(Riff)
In a time when you want it
Am(Riff) G(Riff)
It’s all, it’s all, it’s all in your head
F(Riff) C(Riff)
Don’t mind the future
Am(Riff) G(Riff)
We’ll live, we’ll live, we’ll live, we’ll live again
F(Riff) C(Riff)
In a time when you want it
Am(Riff) G
It’s all, it’s all, it’s all in your head
F(Riff) C(Riff)
Don’t mind the future
Am(Riff) G(Riff)
We’ll live, we’ll live, we’ll live in your head
in your head, in your head, in your head
in your head…
in your head…
Don’t mind the future
Don’t mind the future...
Don’t mind the future
We’ll live, we’ll live, we’ll live in your head
in your head, in your head, in your head

To play the most songs, including The Future by The Van Jets by ukulele, the most crucial basic ukulele chords to learn are C chord, D chord, G chord, and Em chord.
These set you up to play a many of songs, and each of them is easy to learn.

Gravatar Image
Like to play Ukulele and Sudoku Game

Leave a Reply

Your email address will not be published. Required fields are marked *