The Drifter by Devour the Day Ukulele Chords

Posted on

If you are searching for The Drifter ukulele chords, you’ve visit to the right site.
You can play versatile instrument The Drifter using ukulele or guitar.
This song by Devour the Day can also be played by that instruments.
=

The Drifter chords has rhythm and included in album.
You can also get other musical style, including jazz ukulele chords, country music ukulele chords, pop ukulele chords, world music ukulele chords, and rock ukulele chords here.

The Drifter by Devour the Day Ukulele Chords


Intro:


e|-------------0--0--0--0-0--0-|
B|-------------0--0--0--0-0--0-|
G|-1/4-2-0---0-0--0--0--0-0--0-|
D|-0-------4---2--2--2--2-2--2-| x4
A|-------------2--2--2--2-2--2-|
E|-------------0--0--0--0-0--0-|

On the fourth time, play the chords out like this rather than looping back into it.


e|-0--0--0--0-0--0-0--0--0-0-|
B|-0--0--0--0-0--0-0--0--0-0-|
G|-0--0--0--0-0--0-0--0--0-0-|
D|-2--2--2--2-2--2-2--2--2-2-|
A|-2--2--2--2-2--2-2--2--2-2-|
E|-0--0--0--0-0--0-0--0--0-0-|


Verse 1:

(The tab is not synced to the lyrics. They are only there to indicate which part of the song this is.)

He’s been chasing white lines…


e|-3--3--3--3-3--3-3--3--3-3-3--3--3--3-3--3-3--3--3-3-|
B|-0--0--0--0-0--0-0--0--0-0-1--1--1--1-1--1-1--1--1-1-|
G|-0--0--0--0-0--0-0--0--0-0-0--0--0--0-0--0-0--0--0-0-|
D|-0--0--0--0-0--0-0--0--0-0-0--0--0--0-0--0-0--0--0-0-| x2
A|-x--x--x--x-x--x-x--x--x-x-2--2--2--2-2--2-2--2--2-2-|
E|-3--3--3--3-3--3-3--3--3-3-3--3--3--3-3--3-3--3--3-3-|


Even though he misses her…


e|-0--0--0--0-0--0-0--0--0-0-0--0--0--0-0--0-0-0-----|
B|-1--1--1--1-1--1-1--1--1-1-1--1--1--1-1--1-1-1-----|
G|-2--2--2--2-2--2-2--2--2-2-0--0--0--0-0--0-0-0-----|
D|-2--2--2--2-2--2-2--2--2-2-2--2--2--2-2--2-2-2-----|
A|-0--0--0--0-0--0-0--0--0-0-3--3--3--3-3--3-3-3-----|
E|-----------------------------------------------3-2-|


White line after white line…


e|-0--0--0--0-0-0--0--0--0-0-3--3--3--3-3--3-3-3------0--0--0--0-0-0--0--0--0-0-3--3--3--3--3--3--3--3-3-|
B|-0--0--0--0-0-1--1--1--1-1-0--0--0--0-0--0-0-0------0--0--0--0-0-1--1--1--1-1-0--0--0--0--0--0--0--0-0-|
G|-0--0--0--0-0-0--0--0--0-0-0--0--0--0-0--0-0-0------0--0--0--0-0-0--0--0--0-0-0--0--0--0--0--0--0--0-0-|
D|-2--2--2--2-2-2--2--2--2-2-0--0--0--0-0--0-0-0------2--2--2--2-2-2--2--2--2-2-0--0--0--0--0--0--0--0-0-|
A|-2--2--2--2-2-3--3--3--3-3-x--x--x--x-x--x-x-x------2--2--2--2-2-3--3--3--3-3-x--x--x--x--x--x--x--x-x-|
E|-0--0--0--0-0--------------3--3--3--3-3--3-3-3-3-2--0--0--0--0-0--------------3--3--3--3--3--3--3--3-3-|


Chorus:

He’s a drifter, and a gambler…


e|-0--0--0--0-0--0-0--0--0-0-3--3--3--3-3--3-3--3--3-3-0--0--0--0-0--0-0--0--0-0-0--0--0--0-0--0-0--0--0-0-|
B|-1--1--1--1-1--1-1--1--1-1-0--0--0--0-0--0-0--0--0-0-1--1--1--1-1--1-1--1--1-1-1--1--1--1-1--1-1--1--1-1-|
G|-0--0--0--0-0--0-0--0--0-0-0--0--0--0-0--0-0--0--0-0-0--0--0--0-0--0-0--0--0-0-2--2--2--2-2--2-2--2--2-2-|
D|-2--2--2--2-2--2-2--2--2-2-0--0--0--0-0--0-0--0--0-0-2--2--2--2-2--2-2--2--2-2-2--2--2--2-2--2-2--2--2-2-|
A|-3--3--3--3-3--3-3--3--3-3-x--x--x--x-x--x-x--x--x-x-3--3--3--3-3--3-3--3--3-3-0--0--0--0-0--0-0--0--0-0-|
E|---------------------------3--3--3--3-3--3-3--3--3-3-----------------------------------------------------|


All the pain that he’s collected…


e|-0--0--0--0-0--0-0--0--0-0-0--0--0--0-0--0-0--0--0-0-1--1--1--1-1--1-1--1--1-1------0-|
B|-0--0--0--0-0--0-0--0--0-0-1--1--1--1-1--1-1--1--1-1-1--1--1--1-1--1-1--1--1-1------0-|
G|-0--0--0--0-0--0-0--0--0-0-0--0--0--0-0--0-0--0--0-0-2--2--2--2-2--2-2--2--2-2------0-|
D|-2--2--2--2-2--2-2--2--2-2-2--2--2--2-2--2-2--2--2-2-2--2--2--2-2--2-2--2--2-2------2-|
A|-2--2--2--2-2--2-2--2--2-2-3--3--3--3-3--3-3--3--3-3-0--0--0--0-0--0-0--0--0-0------2-|
E|-0--0--0--0-0--0-0--0--0-0----------------------------------------------------------0-|


Interlude:


e|-0--0--0--0-0--0-------------|
B|-0--0--0--0-0--0-------------|
G|-0--0--0--0-0--0-1/4-2-0---0-|
D|-2--2--2--2-2--2-0-------4---| x4
A|-2--2--2--2-2--2-------------|
E|-0--0--0--0-0--0-------------|

Verse 2:

People turn to vampires…


e|-3--3--3--3-3--3-3--3--3-3-3--3--3--3-3--3-3--3--3-3-|
B|-0--0--0--0-0--0-0--0--0-0-1--1--1--1-1--1-1--1--1-1-|
G|-0--0--0--0-0--0-0--0--0-0-0--0--0--0-0--0-0--0--0-0-|
D|-0--0--0--0-0--0-0--0--0-0-0--0--0--0-0--0-0--0--0-0-| x2
A|-x--x--x--x-x--x-x--x--x-x-2--2--2--2-2--2-2--2--2-2-|
E|-3--3--3--3-3--3-3--3--3-3-3--3--3--3-3--3-3--3--3-3-|


He can hear them on the wind…


e|-0--0--0--0-0--0-0--0--0-0-0--0--0--0-0--0-0-0-----|
B|-1--1--1--1-1--1-1--1--1-1-1--1--1--1-1--1-1-1-----|
G|-2--2--2--2-2--2-2--2--2-2-0--0--0--0-0--0-0-0-----|
D|-2--2--2--2-2--2-2--2--2-2-2--2--2--2-2--2-2-2-----|
A|-0--0--0--0-0--0-0--0--0-0-3--3--3--3-3--3-3-3-----|
E|-----------------------------------------------3-2-|


White line after white line…


e|-0--0--0--0-0-0--0--0--0-0-3--3--3--3-3--3-3-3------0--0--0--0-0-0--0--0--0-0-3--3--3--3--3--3--3--3-3-|
B|-0--0--0--0-0-1--1--1--1-1-0--0--0--0-0--0-0-0------0--0--0--0-0-1--1--1--1-1-0--0--0--0--0--0--0--0-0-|
G|-0--0--0--0-0-0--0--0--0-0-0--0--0--0-0--0-0-0------0--0--0--0-0-0--0--0--0-0-0--0--0--0--0--0--0--0-0-|
D|-2--2--2--2-2-2--2--2--2-2-0--0--0--0-0--0-0-0------2--2--2--2-2-2--2--2--2-2-0--0--0--0--0--0--0--0-0-|
A|-2--2--2--2-2-3--3--3--3-3-x--x--x--x-x--x-x-x------2--2--2--2-2-3--3--3--3-3-x--x--x--x--x--x--x--x-x-|
E|-0--0--0--0-0--------------3--3--3--3-3--3-3-3-3-2--0--0--0--0-0--------------3--3--3--3--3--3--3--3-3-|


Chorus:

He’s a drifter, and a gambler…


e|-0--0--0--0-0--0-0--0--0-0-3--3--3--3-3--3-3--3--3-3-0--0--0--0-0--0-0--0--0-0-0--0--0--0-0--0-0--0--0-0-|
B|-1--1--1--1-1--1-1--1--1-1-0--0--0--0-0--0-0--0--0-0-1--1--1--1-1--1-1--1--1-1-1--1--1--1-1--1-1--1--1-1-|
G|-0--0--0--0-0--0-0--0--0-0-0--0--0--0-0--0-0--0--0-0-0--0--0--0-0--0-0--0--0-0-2--2--2--2-2--2-2--2--2-2-|
D|-2--2--2--2-2--2-2--2--2-2-0--0--0--0-0--0-0--0--0-0-2--2--2--2-2--2-2--2--2-2-2--2--2--2-2--2-2--2--2-2-|
A|-3--3--3--3-3--3-3--3--3-3-x--x--x--x-x--x-x--x--x-x-3--3--3--3-3--3-3--3--3-3-0--0--0--0-0--0-0--0--0-0-|
E|---------------------------3--3--3--3-3--3-3--3--3-3-----------------------------------------------------|


All the pain that he’s collected…


e|-0--0--0--0-0--0-0--0--0-0-0--0--0--0-0--0-0--0--0-0-1--1--1--1-1--1-1--1--1-1------0-|
B|-0--0--0--0-0--0-0--0--0-0-1--1--1--1-1--1-1--1--1-1-1--1--1--1-1--1-1--1--1-1------0-|
G|-0--0--0--0-0--0-0--0--0-0-0--0--0--0-0--0-0--0--0-0-2--2--2--2-2--2-2--2--2-2------0-|
D|-2--2--2--2-2--2-2--2--2-2-2--2--2--2-2--2-2--2--2-2-2--2--2--2-2--2-2--2--2-2------2-|
A|-2--2--2--2-2--2-2--2--2-2-3--3--3--3-3--3-3--3--3-3-0--0--0--0-0--0-0--0--0-0------2-|
E|-0--0--0--0-0--0-0--0--0-0----------------------------------------------------------0-|


Interlude:


e|-0--0--0--0-0--0-------------0--0--0--0-0--0-0--0--0-0-|
B|-0--0--0--0-0--0-------------0--0--0--0-0--0-0--0--0-0-|
G|-0--0--0--0-0--0-1/4-2-0---0-0--0--0--0-0--0-0--0--0-0-|
D|-2--2--2--2-2--2-0-------4---2--2--2--2-2--2-2--2--2-2-|
A|-2--2--2--2-2--2-------------2--2--2--2-2--2-2--2--2-2-|
E|-0--0--0--0-0--0-------------0--0--0--0-0--0-0--0--0-0-|


Outro:

Even though he misses her…


e|-0--0--0--0-0--0-0--0--0-0-0--0--0--0-0--0-0-0-----|
B|-1--1--1--1-1--1-1--1--1-1-1--1--1--1-1--1-1-1-----|
G|-2--2--2--2-2--2-2--2--2-2-0--0--0--0-0--0-0-0-----|
D|-2--2--2--2-2--2-2--2--2-2-2--2--2--2-2--2-2-2-----|
A|-0--0--0--0-0--0-0--0--0-0-3--3--3--3-3--3-3-3-----|
E|-----------------------------------------------3-2-|


White line after white line…


e|-0--0--0--0-0-0--0--0--0-0-3--3--3--3-3--3-3-3------0--0--0--0-0-0--0--0--0-0-3-|
B|-0--0--0--0-0-1--1--1--1-1-0--0--0--0-0--0-0-0------0--0--0--0-0-1--1--1--1-1-0-|
G|-0--0--0--0-0-0--0--0--0-0-0--0--0--0-0--0-0-0------0--0--0--0-0-0--0--0--0-0-0-|
D|-2--2--2--2-2-2--2--2--2-2-0--0--0--0-0--0-0-0------2--2--2--2-2-2--2--2--2-2-0-|
A|-2--2--2--2-2-3--3--3--3-3-x--x--x--x-x--x-x-x------2--2--2--2-2-3--3--3--3-3-x-|
E|-0--0--0--0-0--------------3--3--3--3-3--3-3-3-3-2--0--0--0--0-0--------------3-|


To play the this songs, including The Drifter by Devour the Day by ukulele, the most crucial basic ukulele chords to learn are C chord, D chord, G chord, and Em chord.
These set you up to play a ton of songs, and each of them is easy to learn.

Gravatar Image
Like to play Ukulele and Sudoku Game

Leave a Reply

Your email address will not be published. Required fields are marked *