The Continuing Misadventures of Generation X Superhero, Slackerman by Diesel Boy Ukulele Chords

Posted on

If you are searching for The Continuing Misadventures of Generation X Superhero, Slackerman ukulele chords, you have come to the right place.
You can play versatile instrument The Continuing Misadventures of Generation X Superhero, Slackerman using ukulele or guitar.
This song by Diesel Boy can also be played by that instruments.
=

The Continuing Misadventures of Generation X Superhero, Slackerman chords has rhythm and included in Venus Envy (1998) album.
You can also find another musical genres, including jazz ukulele chords, country music ukulele chords, pop ukulele chords, world music ukulele chords, and rock ukulele chords here.

The Continuing Misadventures of Generation X Superhero, Slackerman by Diesel Boy Ukulele Chords


-----------------------------------------------------------------------------------------

The Continuing Misadventures Of Generation X Superhero, Slackerman – Diesel Boy


-----------------------------------------------------------------------------------------

Tabbed by: Tony B
E-mail: leftofpunk@gmail.com

Tuning: Standard

INTRO:


e|-----------------------------------------------|
B|-----------------------------------------------|
G|-----------------10--10--10--------------------|
D|--10--10--10-----10--10--10--------3-times-----|
A|--10--10--10-----8---8---8---------------------|
E|--8---8---8------------------------------------|
e|-----------------------------------------------|
B|-----------------------------------------------|
G|-----------------------------------------------|
D|---7---7---7-----5----5----5-------------------|
A|---7---7---7-----5----5----5-------------------|
E|---5---5---5-----3----3----3-------------------|

SYNTH RIFF played over 2nd half of the INTRO


e|--------------------------------------------------|
B|---13---12--------------------------12---13-------|
G|-------------14----------------14-----------------|
D|--------------------------------------------------|
A|--------------------------------------------------|
E|--------------------------------------------------|
e|--------------------------------------------------|
B|---13---12----------------------------------------|
G|-------------14---12------------------------------|
D|-----------------------15---14---12---------------|
A|--------------------------------------14---12-----|
E|--------------------------------------------------|

VERSE:

From the Bowery to Brighton you’ve all heard my call

I’ve got two pierced nipples and a ring through my balls

My name is Slackerman, superhero for the masses

I’m trying to rid society from the rich upper classes

I’ve got sideburns like Elvis and a shaggy goatee

I was born in seventy-three

VERSE 2:

Most superheros fly high, but me, I’d rather skate

Both parents are lawyers, divorced when I was eight

My wallets got a chain and superpowers to boot

I’ll lasso you like a cowboy then I’ll die your hair blue

I’m studying psych at the local JC

cuz I don’t really know what to be

Play INTRO again

VERSE 3:

My partner in slackdom is a chick named Danielle

I met her at the drive thru of a taco bell

She drives her mom’s green Volvo, bag of tricks on her back

She wears her hair short, wears her Doc Martens black

With her Maybelline lips and her Catholic school skirt

She’ll leave bankers with nothing but dirt

VERSE 4:

Its a thankless job being a hero and all

But I’ve gotta do it or GenX will fall

Yuppies and Boomers get outta my way

Cuz I’m taking over and I start today

I’ve got sideburns like Elvis and a shaggy goatee

I was born in seventy-three

I’m studying psych at the local JC

cuz I don’t really know what to be

I am the twenty-something hero of the world

and I am here for your mocha

end on C

To play the this songs, including The Continuing Misadventures of Generation X Superhero, Slackerman by Diesel Boy by ukulele, the most important basic ukulele chords to learn are C chord, D chord, G chord, and Em chord.
These set you up to play a many of songs, and each of them is easy to master.

Gravatar Image
Like to play Ukulele and Sudoku Game

Leave a Reply

Your email address will not be published. Required fields are marked *