Sink Hole by Drive-By Truckers Ukulele Chords

Posted on

If you are searching for Sink Hole ukulele chords, you’ve come to the right site.
You can play versatile instrument Sink Hole using ukulele or guitar.
This song by Drive-By Truckers can also be played by that instruments.
=

Sink Hole chords has rhythm and included in album.
You can also find another musical style, including jazz ukulele chords, country music ukulele chords, pop ukulele chords, world music ukulele chords, and rock ukulele chords here.

Sink Hole by Drive-By Truckers Ukulele Chords


X4


|-------------------------------|
|-------------------------------|
|.-----------------------------.|
|.--------------3--2-----------.|
|---------3--2--------3--2------|
|---0--3--------------------0---|



|-------------------------------|
|-------------------------------|
|.-----------------------------.|
|.--------------3--2-----------.|
|---------3--2--------3--2------|
|---0--3--------------------0---|


(Walk to G between the Em and A chords)

I’ve always been a religious man,
I’ve always been a religious man
But I met the banker and it felt like sin
He turned my bailout down
The Banker Man, he let into me
Let into me, let into me
The Banker Man, he let into me
And spread my name around
He thinks I ain’t got a lick of sense
‘Cause I talk slow and my money’s spent
Now, I ain’t the type to hold it against
But he better stay off my farm
‘Cause it was my Daddy’s and his Daddy’s before
And his Daddy’s before and his Daddy’s before
Five generations and an unlocked door
And a loaded burglar alarm.


|-------------------------------|
|-------------------------------|
|.-----------------------------.|
|.--------------3--2-----------.|
|---------3--2--------3--2------|
|---0--3--------------------0---|


Lots of pictures of my purdy family
Lots of pictures of my purdy family
Lots of pictures of my purdy family
In the house where I was born.
House has stood through five tornadoes,
Droughts, floods, and five tornadoes.
I’d rather wrestle an alligator
Than to face the Banker’s scorn
‘Cause he won’t even look me in the eye
He just takes my land and apologize,
With pen, paper, and a friendly smile
He says the deed is done.
The sound you hear is my Daddy spinning
The sound you hear is my Daddy spinning
The sound you hear is my Daddy spinning
Over what the Banker done.


|-------------------------------|
|-------------------------------|
|.-----------------------------.|
|.--------------3--2-----------.|
|---------3--2--------3--2------|
|---0--3--------------------0---|


Think I’ll invite him for some pot roast beef
And mashed potatoes and sweet tea
Follow it up with some banana pudding
And a walk around the farm
Show him the view from McGee Town Hill
Let him stand in my shoes and see how it feels
To lose the last thing on earth that’s real
I’d rather lose my legs and arms

Bury his body in the old sink hole
Bury his body in the old sink hole
Bury his body in the old sink hole
Under cold November sky
Then damned if I wouldn’t go to church on Sunday
Damned if I wouldn’t go to church on Sunday
Damned if I wouldn’t go to church on Sunday
And look the Preacher in the eye.

To play the most songs, including Sink Hole by Drive-By Truckers by ukulele, the most important basic ukulele chords to learn are C chord, D chord, G chord, and Em chord.
These set you up to play a ton of songs, and each of them is easy to learn.

Gravatar Image
Like to play Ukulele and Sudoku Game

Leave a Reply

Your email address will not be published. Required fields are marked *