Silence Is Sexy by Handsome Poets Ukulele Chords

Posted on

If you are looking for Silence Is Sexy ukulele chords, you have come to the best site.
You can play versatile instrument Silence Is Sexy using ukulele or guitar.
This song by Handsome Poets can also be played by that instruments.
=

Silence Is Sexy chords has rhythm and included in Handsome Poets (2011) album.
You can also get another musical style, including jazz ukulele chords, country music ukulele chords, pop ukulele chords, world music ukulele chords, and rock ukulele chords here.

Silence Is Sexy by Handsome Poets Ukulele Chords


Silence Is Sexy, as written by the Handsome Poets!

www.handsomepoets.nl

Tabbed by Daniel Klok.

The lyrics might not be perfectly correct, but it’s a try.
The tab itself is, i think 90% correct.

Intro, played clean with a lot of reverb, some Delay and Chorus.


E-----------------------------------------------------------------------|
B-----10------10-----10-----10-----10---------5-----5-----5-----5-----5-|
G-----------------------------------------------------------------------|
D-----------------------------------------------------------------------|
A-8-8----8-8-----8-8----8-8-----8-8----8--3-3---3-3---3-3---3-3---3-3---|
E-----------------------------------------------------------------------|

1. Look at the night how it shines for free Dressed up for me
2. So glad i found how the night can be you made me see


E-----8--------8-----8------7-------7------7----------------------------------|
B---------------------------------------------------5-------5-------5-------5-|
G-----------------------------------------------------------------------------|
D-7-7-----7-7-----7-----5-5-----5-5-----5-------------------------------------|
A----------------------------------------------3-3-----3-3-----3-3-----3-3----|
E-----------------------------------------------------------------------------|

1. Somewhere out of sight
2. Is it love’s profound

Refrain: With tremolo, you just have to find out yourself which speed. And a little
overdrive, I’d play this with power-chords.

No need to speak, silence is sexy

We are at least not lost in ti-me

No need to speak, silence is sexy,

We are at least not lost in time

| F | C | A – G | C |


E-----------------------------------------------------------------------|
B-----10------10-----10-----10-----10---------5-----5-----5-----5-----5-|
G-----------------------------------------------------------------------|
D-----------------------------------------------------------------------|
A-8-8----8-8-----8-8----8-8-----8-8----8--3-3---3-3---3-3---3-3---3-3---|
E-----------------------------------------------------------------------|

3. Please close your eyes, and try to see
4. Let’s build a world, just for you and me


E-----8--------8-----8------7-------7------7----------------------------------|
B---------------------------------------------------5-------5-------5-------5-|
G-----------------------------------------------------------------------------|
D-7-7-----7-7-----7-----5-5-----5-5-----5-------------------------------------|
A----------------------------------------------3-3-----3-3-----3-3-----3-3----|
E-----------------------------------------------------------------------------|

3. how you can dance, lying next to me.
4. than we will see, that our love’s profound.

Refrain.
No need to speak, silence is sexy

We are at least not lost in ti-me

No need to speak, silence is sexy,

We are at least not lost in time

Bridge:

Blinded by a silhouette, touched by a shadow

Warmth trough a smile, it’s been a while.

You dance instead of walking, you sing while you’re talking,

I’m lost in your smile, it’s been a while

Refrain.

No need to speak, silence is sexy

We are at least not lost in ti-me

No need to speak, silence is sexy,

We are at least not lost in time

Fade-out in C.

To play the this songs, including Silence Is Sexy by Handsome Poets by ukulele, the most crucial basic ukulele chords to learn are C chord, D chord, G chord, and Em chord.
These set you up to play a ton of songs, and each of them is easy to master.

Gravatar Image
Like to play Ukulele and Sudoku Game

Leave a Reply

Your email address will not be published. Required fields are marked *