Send in the Boys by Milburn Ukulele Chords

Posted on

If you are looking for Send in the Boys ukulele chords, you already come to the right site.
You can play versatile instrument Send in the Boys using ukulele or guitar.
This song by Milburn can also be played by that instruments.
=

Send in the Boys chords has rhythm and included in Well Well Well (2006) album.
You can also find other musical style, including jazz ukulele chords, country music ukulele chords, pop ukulele chords, world music ukulele chords, and rock ukulele chords here.

Send in the Boys by Milburn Ukulele Chords


Milburn are a new indie band that come from Sheffield. This song is one of my
Most of the tab is right. Any problems email me.

Artist: Milburn.
Song: Send In The Boys
Album: Well Well Well
Genre: Indie/Rock
Tunning: Standard
Difficulty: Novice

Tabbed By: Alun H
Email: Ghost.Busters@hotmail.co.uk

Intro One:
E|–7–|
B|–8–|
G|–9–|
D|–9–|
A|–7–|
E|–x–|

Intro Two/Verse One:


E|------------------------------------------------------------------------|
B|------------------------------------------------------------------------|
G|------------------------------------------------------------------------|
D|-----------------------------------------7-5-----5-7-9------------0-----|
A|-----7-5------7-5--------5-7----7-5---5------8-7----------7-5-----0-----|
E|--5------8-5------8-5--8-----5------8------------------5------8-5-0--3--|

He had her down in the cellar with a knife pointing at her throat
He wouldn’t let her go oh no, he wouldn’t ler her go
She kicked and screamed
Someone heard through the walls from next door
‘What’s the crack? what’s the score?’
Next door neighbour gave a call
No one answered, so the boys are coming
The boys are coming for you

End On
E|–x–|
B|–x–|
G|–x–|
D|–7–|
A|–7–|
E|–5–|

Chorus:
They’ll take you on a holiday
Maybe to the seaside, maybe they’ll just give you away
They’ll drop you off and say goodbye
You’re looking pretty dangerous
You’re looking pretty dangerous
And nobody knows just quite what you will do next
So we will send in the boys, the boys are coming for you

Interlude:


E|--------------------------------------|
B|--------------------------------------|
G|--------------------------------------|
D|--------------------------------0-----|
A|-----7-5------7-5------7-5------0-----|
E|--5------8-5------8-5------8-5--0--3--|

Verse Two:


E|------------------------------------------------------------------------|
B|------------------------------------------------------------------------|
G|------------------------------------------------------------------------|
D|-----------------------------------------7-5-----5-7-9------------0-----|
A|-----7-5------7-5--------5-7----7-5---5------8-7----------7-5-----0-----|
E|--5------8-5------8-5--8-----5------8------------------5------8-5-0--3--|

Coppers came heavy handed
Closed the street and demanded us to stay at home today
Oh you must stay at home today
Calm him down, reassure him
Leave the girl this is stupid, hold your hands up
We’ll get you through this, yeah we’ll get you through this
So the boys are coming, the boys are coming for you

End On
E|–x–|
B|–x–|
G|–x–|
D|–7–|
A|–7–|
E|–5–|

Chorus:
They’ll take you on a holiday
Maybe to the seaside, maybe they’ll just give you away
They’ll drop you off and say goodbye
You’re looking pretty dangerous
You’re looking pretty dangerous
And nobody knows just quite what you will do next
So we will send in the boys, the boys are coming for you

Solo:


E|---------------------------------------------------|
B|---------------------------------------------------|
G|---------------------------------------------------|
D|--------------------------------------5---5-7-5----|
A|--------5-6-7-------7-6-5-------5-6-7---7-------7--| x3
E|--5-5-5-------5-5-5-------5-5-5--------------------|
E|-------------------------------------------------------|
B|-------------------------------------------------------|
G|----------------7----7-7b----7-------------------7-7b--|
D|--7-7-7-10-7-10---10------10---10-7-10-7----7-10-------|
A|-----------------------------------------10------------|
E|-------------------------------------------------------|

(You can work out the rest of the solo if you like as thats all I can work out. It’s
using those notes. I will figure it out another time)

Chorus:
They’ll take you on a holiday
Maybe to the seaside, maybe they’ll just give you away
They’ll drop you off and say goodbye
You’re looking pretty dangerous
You’re looking pretty dangerous
And nobody knows just quite what you will do next
So we will send in the boys, the boys are coming for you

Thats it. Any problems email me or add me on msn.
Enjoy.

To play the this songs, including Send in the Boys by Milburn by ukulele, the most crucial basic ukulele chords to learn are C chord, D chord, G chord, and Em chord.
These set you up to play a a lot of songs, and each of them is easy to master.

Gravatar Image
Like to play Ukulele and Sudoku Game

Leave a Reply

Your email address will not be published. Required fields are marked *