Runaway by Groove Coverage Ukulele Chords

Posted on

If you are looking for Runaway ukulele chords, you have come to the right place.
You can play versatile instrument Runaway using ukulele or guitar.
This song by Groove Coverage can also be played by that instruments.
=

Runaway chords has rhythm and included in 7 Years and 50 Days (2004) album.
You can also get another musical genres, including jazz ukulele chords, country music ukulele chords, pop ukulele chords, world music ukulele chords, and rock ukulele chords here.

Runaway by Groove Coverage Ukulele Chords


SONG: Runaway
ARTIST: Groove Coverage
TABBED BY: Arvid Andr Fjeld
EMAIL: aaf_soad@hotmail.com

This is actually a trance song, but it is a Distortion guitar in the background.

Intro:


E|---7-----------------------------------------------|
B|-----7---------------------------------------------|
G|-------7-------------------------------------------|
D|------------------------------------------------------|
A|------------------------------------------------------|
E|------------------------------------------------------|

It goes like this through the song:
( Tab from: http://www.guitartabs.cc/tabs/g/groove_coverage/runaway_tab_ver_2.html )


E|------------------------------------------------|
B|------------------------------------------------|
G|------------------------------------------------|
D|-------9----------5----------7----------9-------|
A|----------9-----5----5-----7----7-----9----9----|
E|---7----------3----------5----------7-----------|
PM:----| |--------| |--------| |--------| |------|

A thing that comes right before chorus:


E|---20b------------------------------------------|
B|------------------------------------------------|
G|------------------------------------------------|
D|------------------------------------------------|
A|------------------------------------------------|
E|------------------------------------------------|

That was my first tab. If you got any comments, corrections or questions, mail them to:
aaf_soad@hotmail.com.
Listen to the song for the timing, and it might be cool to use effects like reverb or delay.

To play the this songs, including Runaway by Groove Coverage by ukulele, the most crucial basic ukulele chords to learn are C chord, D chord, G chord, and Em chord.
These set you up to play a many of songs, and each of them is easy to master.

Gravatar Image
Like to play Ukulele and Sudoku Game

Leave a Reply

Your email address will not be published. Required fields are marked *