Rock Bottom by Eminem Ukulele Chords

Posted on

If you are looking for Rock Bottom ukulele chords, you’ve come to the right site.
You can play versatile instrument Rock Bottom using ukulele or guitar.
This song by Eminem can also be played by that instruments.
=

Rock Bottom chords has rhythm and included in The Slim Shady LP (1999) album.
You can also get another musical style, including jazz ukulele chords, country music ukulele chords, pop ukulele chords, world music ukulele chords, and rock ukulele chords here.

Rock Bottom by Eminem Ukulele Chords



e|--11--10--11------11--10--11------11--10--11-------------------------------------------------------|
B|--------------11--------------12--------------11-/-12--11--9--11------9----------9--11-/-12--11--|
G|-------------------------------------------------------------------11-----10--11-------------------|
D|---------------------------------------------------------------------------------------------------|
A|---------------------------------------------------------------------------------------------------|
E|---------------------------------------------------------------------------------------------------|
e|----------------------------------------------|
B|--11--9--7--9--9--7--6--7--11--9--7--6--4--3--|
G|----------------------------------------------|
D|----------------------------------------------|
A|----------------------------------------------|
E|----------------------------------------------|

A-yo!
This song is dedicated to all the happy people
All the happy people who have real nice lives
And have no idea what it’s like to be broke as fk


I feel like I’m walking a tight rope, without a circus net
I’m popping percocets, I’m a nervous wreck
I deserve respect; but I work a sweat for this worthless check
’Bout to burst this tech, at somebody to reverse this debt

Minimum wage got my adrenaline caged
Full of venom and rage

Especially when I’m engaged
And my daughter's down to her last diaper
That’s got my ass hyper
I pray that god answers, maybe I’ll ask nicer

Watching ballers while they’re flossing in their pathfinders
These overnight stars becoming autograph signers
We all long to blow up and leave the past behind us
Along with the small fry’s and average half pinters
While player haters turn bch like they have vaginas
‘Cause we see them dollar signs and let the cash blind us
Money’ll brainwash you and leave your ass mindless

While snakes slither in the grass spineless

(Chords 2x)


e|--11--10--11------11--10--11------11--10--11-------------------------------------------------------|
B|--------------11--------------12--------------11-/-12--11--9--11------9----------9--11-/-12--11--|
G|-------------------------------------------------------------------11-----10--11-------------------|
D|---------------------------------------------------------------------------------------------------|
A|---------------------------------------------------------------------------------------------------|
E|---------------------------------------------------------------------------------------------------|
e|----------------------------------------------|
B|--11--9--7--9--9--7--6--7--11--9--7--6--4--3--|
G|----------------------------------------------|
D|----------------------------------------------|
A|----------------------------------------------|
E|----------------------------------------------|

That’s Rock Bottom

When this life makes you’re mad enough to kill
That’s Rock Bottom

When you want something bad enough to steal
That’s Rock Bottom

When you feel like you’ve had it up to here
‘Cause you’re mad enough to scream but you’re sad enough to tear

[Verse 2]
N.C.
My life is full of empty promises

And broken dreams
I’m hoping things will look up

But there ain’t no job openings
I feel discouraged, hungry and malnourished
Living in this house with no furnace, unfurnished
And I’m sick of working dead end jobs with lame pay
And I’m tired of being hired and fired the same day
But fk it, if you know the rules to the game play
‘Cause when we die we know we’re all going the same way
It’s cool to be the player, but it sucks to be the fan
When all you need is bucks to be the man
Plus a luxury sedan

Too comfortable and roomy in a six
But they threw me in the mix

With all these gloomy lunatics
Who walk around depressed

And smoke a pound of ses a day
And yesterday went by so quick it seems like it was just today
My daughter wants to throw the ball but I’m too stressed to play

Live half my life and throw the rest away

(Chords 2x)


e|--11--10--11------11--10--11------11--10--11-------------------------------------------------------|
B|--------------11--------------12--------------11-/-12--11--9--11------9----------9--11-/-12--11--|
G|-------------------------------------------------------------------11-----10--11-------------------|
D|---------------------------------------------------------------------------------------------------|
A|---------------------------------------------------------------------------------------------------|
E|---------------------------------------------------------------------------------------------------|
e|----------------------------------------------|
B|--11--9--7--9--9--7--6--7--11--9--7--6--4--3--|
G|----------------------------------------------|
D|----------------------------------------------|
A|----------------------------------------------|
E|----------------------------------------------|

That’s Rock Bottom

When this life makes you’re mad enough to kill
That’s Rock Bottom

When you want something bad enough to steal
That’s Rock Bottom

When you feel like you’ve had it up to here
‘Cause you’re mad enough to scream but you’re sad enough to tear

[Verse 3]
N.C.
There’s people that love me and people that hate me (yup)
But it’s the evil that made me this backstabbing, deceitful, and shady
I want the money, the women, the fortune, and the fame
That means I’ll end up burning in hell scorching in flames
That means I’m stealing your checkbook and forging your name
There’s lifetime bliss for eternal torture and pain
‘Cause right now I feel like I’ve just hit the rock bottom
I got problems now everybody on my blocks got ’em (I’m done)
I’m screaming like those two cops when 2pac shot ’em
Holding two glocks, I hope your doors got new locks on ‘em
My daughter’s feet ain’t got no shoes or socks on ‘em
And the rings you’re wearing look like they got a few rocks on ‘em
And while you flaunt ’em I could be taking them to shops to pawn them
I got a couple of rings and a brand new watch you want ‘em?

‘Cause I never went gold off one song
I’m running up on someone’s lawn with guns drawn

(Chords 2x)


e|--11--10--11------11--10--11------11--10--11-------------------------------------------------------|
B|--------------11--------------12--------------11-/-12--11--9--11------9----------9--11-/-12--11--|
G|-------------------------------------------------------------------11-----10--11-------------------|
D|---------------------------------------------------------------------------------------------------|
A|---------------------------------------------------------------------------------------------------|
E|---------------------------------------------------------------------------------------------------|
e|----------------------------------------------|
B|--11--9--7--9--9--7--6--7--11--9--7--6--4--3--|
G|----------------------------------------------|
D|----------------------------------------------|
A|----------------------------------------------|
E|----------------------------------------------|

That’s Rock Bottom

When this life makes you’re mad enough to kill
That’s Rock Bottom

When you want something bad enough to steal
That’s Rock Bottom

When you feel like you’ve had it up to here
‘Cause you’re mad enough to scream but you’re sad enough to tear

That’s Rock Bottom

To play the this songs, including Rock Bottom by Eminem by ukulele, the most important basic ukulele chords to learn are C chord, D chord, G chord, and Em chord.
These set you up to play a many of songs, and each of them is easy to master.

Gravatar Image
Like to play Ukulele and Sudoku Game

Leave a Reply

Your email address will not be published. Required fields are marked *