Return to Oz by Scissor Sisters Ukulele Chords

Posted on

If you are looking for Return to Oz ukulele chords, you already visit to the best place.
You can play versatile instrument Return to Oz using ukulele or guitar.
This song by Scissor Sisters can also be played by that instruments.
=

Return to Oz chords has rhythm and included in Scissor Sisters (2004) album.
You can also find other musical style, including jazz ukulele chords, country music ukulele chords, pop ukulele chords, world music ukulele chords, and rock ukulele chords here.

Return to Oz by Scissor Sisters Ukulele Chords


I’ve been looking for the tabs/chords to return to oz for AGES! But I figured it out!

These are all the chords used:

C#m (Am shape)
E (C shape)
B (A shape)
G# (E shape)
A (E shape)
C (A shape)
G (E shape)
Bm (Am shape)

F (E shape)
Cm (Am shape)

If you’re playing on electric (which is best for this song) use flange.

Intro


E-----------4---------------------4----------------------4------------------4--------------------------4---|
B-5------------5-------5-------------5-------5------------5-------5---------5-------------5------------5---|
G----6-----------6--------6-------------6-------6------------6-------6---------6-------------6------------6|
D-------6---------------------6----------------------6--------------------6------------------------6-------|
A-4--------------------4----------------------4---------------------4------------------------4-------------|
E----------------------------------------------------------------------------------------------------------|

Verse 1


E-----------4---------------------4------|---------------4-------|--------------2--------|---------4-----------|
B-5------------5------5-------------5----|-----------------5-----|-----------------4-----|-------------4-------|
G----6-----------6-------6-------------6-|--------4----------4---|------4------------4---|----------------5----|
D-------6--------------------6-----------|-----6-----6---------6-|---4-----4-----------4-|-------------------6-|
A-4-------------------4------------------|--7--------------------|-2---------------------|---6-----------------|
E----------------------------------------|-----------------------|-----------------------|-4-------------------|


E----------------4----------|--------5-----------|----------------5----------|----------4-----------------------|
B-------------------4-------|-----------5--------|-------------------5-------|-------------5--------------------|
G----------------------5----|---------------6----|----------------------6----|----------------6--------------6--|
D-------6-----------------6-|------------------7-|-------7-----------------7-|----6--------------6-------6-----6|
A----6-----6----------------|----7---------------|---7-----7-----------------|-4----------------------4---------|
E-4-------------------------|-5------------------|--5------------------------|----------------------------------|


E-4-----------|------3------------------------3------------|-------------5---------|-------------2------------|
B----5--------|---------5------------------------5---------|----------------5------|----------------3---------|
G-------6-----|------------5-----------5-----------5-------|-------------------6---|-------4----------4-------|
D-----------6-|---5----------5-----5------5----------5-----|------5--------------7-|----4----4-----------4----|
A-------------|-3---------------3--------------------------|---5----5--------------|-2------------------------|
E-------------|--------------------------------------------|-3---------------------|--------------------------|


E-------0--------------------------0---------|
B----------2--------------------------2------|
G-------------2------------2------------2----|
D----2-----------2-----2------2-----------2--|
A-0------------------0-----------------------|
E--------------------------------------------|

Chorus
He said is this the return to oz? The grass is dead, the gold is brown and the sky has claws.
There’s a wind-up man walking round and round what once was Emerald City’s now a
Crystal town.

Verse 2
It’s three o’clock in the morning You get a phone call from the queen with a hundred heads
She said that they’re all dead.


E-12---------12----------12------------12----------12------------12-----------12------------12-----------12
B-----14----------14----------14------------14----------14------------13-----------13------------13---------
G---------13----------13-----------13-----------13-----------13------------12-----------12------------12----
E----------12-----------10------------10-----------10-------10-------------10------------10--------9----------
B-13-----------13-----------12-----------12------------12-------12-------------12------------12-------10----
G-----12-----------12------------12-----------12-----------------------11-------------11----------------------9
E-9--------9----------9----------9----------|
B---10--------10--------10---------10----|
G-------9----------9----------9-----------9-|

Chorus

Do the same chords but another guitar player will do this bit twice:


E-12-----------12------------12------------12------------12----------13-----------13----------13-------11---
B-----14------------14------------14------------14-----------14----------13-----------13-----------13-----13
G---------13------------13-------------13------------13-----------13----------14----------14------------------
E------11-----------11-------12----------12------------12------------12-----------12---------|
B----------13------------13------14-----------14------------14------------14----------14-----|
G-13----------13---------------------13------------13------------13------------13---------13-|

Solo


E-12-13-12-14-15-14-8-10-8-10-8-7-8-7-|-12-13-12-11-12-11-10-11-10-8-4-|

Verse 3

Same as verse 2.

Chorus

To play the most songs, including Return to Oz by Scissor Sisters by ukulele, the most crucial basic ukulele chords to learn are C chord, D chord, G chord, and Em chord.
These set you up to play a ton of songs, and each of them is easy to learn.

Gravatar Image
Like to play Ukulele and Sudoku Game

Leave a Reply

Your email address will not be published. Required fields are marked *