Reason to Believe by Sum 41 Ukulele Chords

Posted on

If you are looking for Reason to Believe ukulele chords, you already come to the right site.
You can play versatile instrument Reason to Believe using ukulele or guitar.
This song by Sum 41 can also be played by that instruments.
=

Reason to Believe chords has rhythm and included in Screaming Bloody Murder (2011) album.
You can also find another musical genres, including jazz ukulele chords, country music ukulele chords, pop ukulele chords, world music ukulele chords, and rock ukulele chords here.

Reason to Believe by Sum 41 Ukulele Chords


-------------------------------------------------------------------------------

REASON TO BELIEVE – Sum 41


-------------------------------------------------------------------------------

Tabbed by: shenanigan

Tuning: 1 step down (low to high: DGCFAD)

note: all chord names are respective to this tuning. so I chose the chord
names after how you finger the chord, not how it sounds like.

Main Riff


d|--------------------------------------------------------------------------|
A|--------------------------------------------------------------------------|
F|--------------------------------------------------------------------------|
C|-2-2---2-----2------5-5---5---5-5------7-7---7---7-7------7-7---7---7-7---| x2
G|-2-2---2-----2------5-5---5---5-5------5-5---5---5-5------5-5---5---5-5---|
D|-0-0---0---3-0------3-3---3---3-3------5-5---5---5-5------5-5---5---5-5---|

Guitar 1 repeats the main riff one more time, while Guitar 2 plays the lead:


d|---------------------------------------------------------------------------|
A|---------------------------------------------------------------------------|
F|---------------------------------------------------------------------------|
C|---------------------------------------------------------------------------|
G|---------------------------------------5-5---5---5-5------5-5---5---5-5----|
D|------------------3--2--3--5--3--2---------------------------------------|

Guitar 2 repeats Lead
Guitar 1 repeats Main Riff x4 and ends with:


d|----------------------------------|
A|----------------------------------|
F|----------------------------------|
C|-7-7-7-7-7-7-7-7-7-7-7-7-7-7-\\-|
G|-5-5-5-5-5-5-5-5-5-5-5-5-5-5-\\-|
D|-----------------------------\\-|

all palm muted slide

I’ve been waiting for something for so long

To show me the answers that I want

A reason to believe in that’s so strong

But I don’t think that it exists

I’ve been waiting for something for so long

To show me the answers that I want

A reason to believe in that’s so strong

But I don’t think that it exists

Both Guitars:


d|-------------------------------------------------------------|
A|-------------------------------------------------------------|
F|---------------5--5--5-5-5-5---------------------------------|
C|-2--2--2-2-2-2-5--5--5-5-5-5---------------------------------| x8
G|-2--2--2-2-2-2-3--3--3-3-3-3---------------------------------|
D|-0--0--0-0-0-0---------------3-3-3-3-3-3-3-3-2-2-2-2-2-2-2-2-|

Yeah give reason to believe this world’s not a sick machine

when everywhere’s a dead-end in every direction

Yeah can you give what I need or just sit and watch me bleed

cause after all you can’t get everything you want now

But all I would need is one thing to keep me moving on

Piano Part:

Everybody’s got a secret

Can you tell me what is mine?

Can you tell me what you’d find?

I’ll tell you if you keep it,

I promise not to lie, oooohoo

Acoustic Guitar In


d|-----0--------0--------3-------3--------2-------2-------2-------2---|
A|---1---1----1---1--------3-------3--------3-------3-------3-------3-|
F|---------------------0-----0-0--------------------------------------|
C|--------------------------------------0-------0-------0-------0-----| x2
G|--------------------------------------------------------------------|
D|--------------------------------------------------------------------|

Well I have the fears

the pain and the tears I just can’t hide

it all disappears

cause everything passes with the time

all you need

To play the this songs, including Reason to Believe by Sum 41 by ukulele, the most important basic ukulele chords to learn are C chord, D chord, G chord, and Em chord.
These set you up to play a ton of songs, and each of them is easy to learn.

Gravatar Image
Like to play Ukulele and Sudoku Game

Leave a Reply

Your email address will not be published. Required fields are marked *