Punkirock by Tronic Ukulele Chords

Posted on

If you are looking for Punkirock ukulele chords, you already come to the right place.
You can play versatile instrument Punkirock using ukulele or guitar.
This song by Tronic can also be played by that instruments.
=

Punkirock chords has rhythm and included in Ke patine la risa (2003) album.
You can also find another musical style, including jazz ukulele chords, country music ukulele chords, pop ukulele chords, world music ukulele chords, and rock ukulele chords here.

Punkirock by Tronic Ukulele Chords


[+++++++++++++++++++++]| Tronic- Punkirock |
[+++++++++++++++++++++]

“La guitarra la pasin que nos llena el corazn…”

Tuning: EADG

Verse
“En la escuela yo aprend…”
1.


G|---------------------------------------------------------6-9-7~------------------|
D|-------------7-9-6-7---------------------------------7-9-------------7-9~--------|
A|-5~----7~------------9~--------7~--------5~----7~--------------------------------|
E|---------------------------------------------------------------------------------|

“Trabajar y trabajar…”
2.


G|---------------------------------------------------------------------------------|
D|-----------7777-6666------4477-6666-676------------7777-6666------4477-6---------|
A|-5555-7777-----------5555--------------7-5555-7777-----------5555-------777-7777-|
E|---------------------------------------------------------------------------------|

Chorus
“Hey! Oh!”
3.


G|--------------------------------------------------------------------------|
D|---------------------------------666-44444444-----------------------------|
A|----------55555555-00000000-77777-------------55555555-00000000-7~--------|
E|-22222222-----------------------------------------------------------------|

Verse
“Un saludo a los pcs…”
4.


G|---------------------------------------------------------------------------------|
D|-----------7777-6666------4477-6666-676------------7777-6666------4477-6---------|
A|-5555-7777-----------5555--------------7-5555-7777-----------5555-------777-7777-|
E|---------------------------------------------------------------------------------|

( Tab from: http://www.guitartabs.cc/tabs/t/tronic/punkirock_btab.html )
Chorus
“Hey! Oh!”
5.


G|-------------------------------------------------------------------------|
D|-------------------77777777------666-44444444----------77777777----------|
A|----------55555555----------77777-------------55555555----------77777777-|
E|-22222222----------------------------------------------------------------|

Bridge
6.


G|-------------------------------------------------------------------------|
D|-44444442----------------------------44444442----------------------------|
A|----------55555554-00000045-77777777----------55555554-00000045-777777x--|
E|-------------------------------------------------------------------------|

Chorus
“Hey! Oh!”
7.


G|-------------------------------------------------------------------------|
D|-------------------77777777------666-44444444----------77777777------666-|
A|----------55555555----------77777-------------55555555----------77777----|
E|-22222222----------------------------------------------------------------|

8.


G|-------------------------------------------------------------------------|
D|-------------------77777777------666-44444444----------77777777----------|
A|----------55555555----------77777-------------55555555----------7~-------|
E|-22222222----------------------------------------------------------------|

Outro
9.


G|----------------|
D|----------------|
A|-5-4-0-4-5-4-0x-|
E|----------------|

Lyrics:

En la escuela yo aprend
Que estudiar no es para mi, me deprima
La guitarra la pasin
Que nos llena el corazn, nuestra heroina
Trabajar y trabajar
Sin fiestear hace muy mal, nos deprima
Y eso de ser un robot
Y cumplir un horario, nos derreta

Un saludo a los PCs
Que nos brindan Fruity Loops y tambien K-Walk
Y un saludo para Yo,
Johnny, Tony y Vivi, la reventaron

[+++++++++++++++++++++++++++++++++]| RaiLeff |
| Underground__Dora@Hotmail.Com |
[+++++++++++++++++++++++++++++++++]

To play the most songs, including Punkirock by Tronic by ukulele, the most important basic ukulele chords to learn are C chord, D chord, G chord, and Em chord.
These set you up to play a a lot of songs, and each of them is easy to master.

Gravatar Image
Like to play Ukulele and Sudoku Game

Leave a Reply

Your email address will not be published. Required fields are marked *