Poor Boy, Long Ways From Home by Mississippi John Hurt Ukulele Chords

Posted on

If you are searching for Poor Boy, Long Ways From Home ukulele chords, you already visit to the best site.
You can play versatile instrument Poor Boy, Long Ways From Home using ukulele or guitar.
This song by Mississippi John Hurt can also be played by that instruments.
=

Poor Boy, Long Ways From Home chords has rhythm and included in Last Sessions (1966) album.
You can also find other musical style, including jazz ukulele chords, country music ukulele chords, pop ukulele chords, world music ukulele chords, and rock ukulele chords here.

Poor Boy, Long Ways From Home by Mississippi John Hurt Ukulele Chords


Poor Boy, Long Ways From Home
Mississippi John Hurt (from “Last Sessions”)
tab by torbjrn nymo (metonymo @ mail . ru)

Part I: C C F C

Part II: C C F C

Intro (Part I):


I?m a poor, poor boy, and a long ways from home
feel like I ain?t got no friend

Instrumental: I?II-I

I?m a poor, poor boy, and a long ways from home
feel like I ain?t got no friend

I?m a poor, old boy, and a long ways from home
feel like I ain?t got no friend

Instrumental: II-I

Oh, please, please, let me stay all night
I?m a poor boy, and a long ways from home

Oh, please, please, let me stay all night
I?m a poor boy, and a long ways from home

Instrumental: II-I

Poor Boy, Long Ways From Home
Mississippi John Hurt

Inrto (Part I):
: . . . : . . .


|---------------------3-/-5--3--------------------------------------|
|-----------------------------------------------------1h3------------|
|--------------------------------------------------------------------|
|---------2--------------------------------2---------------2---------|
|-3---------------3----------------3---------------3-----------------|
|--------------------------------------------------------------------|

F C /g
: . . . : . . .


|--------------------------------------------------------------------|
|-1---------------------------1--------------------------------------|
|---------------------2----------------------------------------------|
|---------3---------------3----------------2---------------2---------|
|----------------------------------3---------------------------------|
|-1---------------1--------------------------------3-----------------|

: . . . : . . .


|-0-----------3-/-5--3------------0---------------------------------|
|-----------------------------1---------------(0)------3-------------|
|---------0---------------0------------------------------------------|
|------------------------------------------2---------------0---------|
|-3--------------------------------3---------------------------------|
|--------------------------------------------------3-----------------|

: . . . : . . .


|------------------------------------------------------0-------------|
|-1------------------------------------------------------------------|
|-------------0-------0-------0----------------------------0---------|
|---------2--------------------------------2-------------------------|
|-3-----------------------2--------3---------------3-----------------|
|-----------------3--------------------------------------------------|

Part II:
: . . . : . . .


|-----3-------3-/-5-/-3------------0-----------0---------------------|
|-1---------------------------1---------------------(1h)3------------|
|---------0---------------0------------------------------------------|
|------------------------------------------2----------------2--------|
|-3--------------------------------3---------------3-----------------|
|--------------------------------------------------------------------|

F C /g
: . . . : . . .


|--------------------------------------------------------------------|
|--------------------------1-----------------------------------|
|---------------------2----------------------------------------------|
|---------3---------------3----------------2---------------2---------|
|----------------------------------3---------------------------------|
|-1---------------1--------------------------------3-----------------|

: . . . : . . .


|---------------------0------------3---3(s0)-----------0-------------|
|-1-----------1---------------1--------------------------------3-----|
|--------------------------------------------------------------------|
|---------2---------------2----------------2---------------2---------|
|-3---------------3----------------3---------------3-----------------|
|--------------------------------------------------------------------|

: . . . : . . .


|------------------------------------------------------0-------------|
|(3)--------------------------------------------------------------|
|-----0---------------0-------0----------------------------0---------|
|-0-----------------------0----------------0-------------------------|
|-----------------2--------------------------------------------------|
|---------3------------------------3---------------3-----------------|

Variations:

Part I:
: . . . : . . .


|-------------3-/-5--3------------------------0---------------------|
|--------------------------1---------------------(1h)3------------|
|---------0---------------0------------------------------------------|
|------------------------------------------2---------------2---------|
|-3--------------------------------3---------------3-----------------|
|--------------------------------------------------------------------|

F C /g
: . . . : . . .


|--------------------------------------------------------------------|
|-1---------------------------1--------1-----------------------------|
|---------------------2----------------------------------------------|
|---------3---------------3----------------2---------------2---------|
|----------------------------------3---------------------------------|
|-1---------------1--------------------------------3-----------------|

: . . . : . . .


|----------3-/-5--3------------0---------------------------------|
|-----------------------------1---------------[0]------3-------------|
|--------------------------------------------------------------------|
|---------2---------------2----------------2---------------0---------|
|-3--------------------------------3---------------------------------|
|--------------------------------------------------3-----------------|

: . . . : . . .


|------------------------------------------------------0-------------|
|-1------------------------------------------------------------------|
|------------(0)-----(0)------0---------------------------[0]--------|
|---------2--------------------------------2---------------2---------|
|-3-----------------------2--------3---------------3-----------------|
|-----------------3--------------------------------------------------|

Part II:
: . . . : . . .


|-----3---3--/--5--/--3------------0-----------0---------------------|
|-1---------------------------1---------------------(1h)3------------|
|--------------------------------------------------------------------|
|-------------------------2----------------2----------------2--------|
|-3--------------------------------3---------------3-----------------|
|--------------------------------------------------------------------|

F C /g
: . . . : . . .


|--------------------------------------------------------------------|
|--------------------------1-----------------------------------|
|---------------------2----------------------------------------------|
|---------3---------------3----------------2---------------2---------|
|----------------------------------3---------------------------------|
|-1---------------1--------------------------------3-----------------|

: . . . : . . .


|---------------------0------------3---3(s0)-----------0-------------|
|-1-----------1---------------1--------------------------------3-----|
|--------------------------------------------------------------------|
|---------2---------------2----------------2---------------2---------|
|-3---------------3----------------3---------------3-----------------|
|--------------------------------------------------------------------|

: . . . : . . .


|------------------------------------------------------0-------------|
|(3)--------------------------------------------------------------|
|-----0---------------0-------0----------------------------0---------|
|-0-----------------------0----------------0-------------------------|
|-----------------2--------------------------------------------------|
|---------3------------------------3---------------3-----------------|

Part I:
: . . . : . . .


|-------------3-/-5--3-(s0)-------0-----------0---------------------|
|------------------------------------------------------3-------------|
|--------------------------------------------------------------------|
|---------2---------------2----------------2---------------2---------|
|-3--------------------------------3---------------3-----------------|
|--------------------------------------------------------------------|

F C /g
: . . . : . . .


|--------------------------------------------------------------------|
|-1---------------------------1----1----------------------(1)--------|
|---------------------2----------------------------------------------|
|---------3---------------3----------------2---------------2---------|
|----------------------------------3---------------------------------|
|-1---------------1--------------------------------3-----------------|

: . . . : . . .


|-------------3-/-5--3------------0---------------------------------|
|-1---------------------------1----------------0-------3-------------|
|--------------------------------------------------------------------|
|---------2---------------2----------------2---------------0---------|
|-3--------------------------------3---------------------------------|
|--------------------------------------------------3-----------------|

: . . . : . . .


|------------------------------------------------------0-------------|
|-1------------------------------------------------------------------|
|-------------0-------0-------0--------------------------------0-----|
|---------2--------------------------------2---------------2---------|
|-3-----------------------2--------3---------------3-----------------|
|-----------------3--------------------------------------------------|

Part II:
: . . . : . . .


|---------------------3------------0-----------0---------------------|
|-1--------------(1)----------1------------------------3---1---------|
|---------0---------------0------------------------------------------|
|------------------------------------------2---------------2---------|
|-3---------------3----------------3---------------3-----------------|
|--------------------------------------------------------------------|

F C /g
: . . . : . . .


|--------------------------------------------------------------------|
|-----------------------------1---(1)--------------------------------|
|---------------------2----------------------------------------------|
|---------3---------------3----------------2---------------2---------|
|----------------------------------3---------------------------------|
|-1---------------1--------------------------------3-----------------|

: . . . : . . .


|---------------------0------------3---3(s0)-----------0-------------|
|-1-----------1---------------1--------------------------------3-----|
|--------------------------------------------------------------------|
|---------2---------------2----------------2---------------2---------|
|-3---------------3----------------3---------------3-----------------|
|--------------------------------------------------------------------|

: . . . : . . .


|------------------------------------------------------0-------------|
|----------------------------------------------------------1---------|
|---------------------0-------0--------------------------------------|
|-------------------------0----------------0-------------------------|
|-----2-----------2--------------------------------------------------|
|-3-------3------------------------3---------------3-----------------|

Part I:
: . . . : . . .


|-------------3-/-5--3------------------------0---------------------|
|-1-------------------------------(1)---------------(1h)3------------|
|-----------------------------0----------------------------0---------|
|---------2---------------2----------------2-------------------------|
|-3--------------------------------3---------------3-----------------|
|--------------------------------------------------------------------|

F C /g
: . . . : . . .


|--------------------------------------------------------------------|
|-1---------------------------1--------------------------------------|
|---------------------2----------------------------------------------|
|---------3---------------3----------------2---------------2---------|
|----------------------------------3---------------------------------|
|-1---------------1--------------------------------3-----------------|

: . . . : . . .


|-----3-------3-/-5--3------------0---------------------------------|
|-1---------------------------1--------------------0(h)3-------------|
|--------------------------------------------------------------------|
|---------2---------------2----------------2---------------0---------|
|-3--------------------------------3---------------------------------|
|--------------------------------------------------3-----------------|

: . . . : . . .


|------------------------------------------------------0-------------|
|-1------------------------------------------------------------------|
|------------(0)------0-------0----------------------------0---------|
|---------2--------------------------------2-------------------------|
|-3-----------------------2--------3---------------3-----------------|
|-----------------3--------------------------------------------------|

Part II:
: . . . : . . .


|---------------------3------------------------0---------------------|
|-1---------------------------1---(1)---------------(1h)3------------|
|---------0---------------0------------------------------------------|
|------------------------------------------2---------------2---------|
|-3---------------3----------------3---------------3-----------------|
|--------------------------------------------------------------------|

F C /g
: . . . : . . .


|----------------------------------0---------------------------------|
|-1---------------------------1--------------------------------------|
|---------------------2----------------------------------------------|
|---------3---------------3----------------2---------------2---------|
|----------------------------------3---------------------------------|
|-1---------------1--------------------------------3-----------------|

: . . . : . . .


|---------------------0------------3---3-------------------0---------|
|-1-----------1---------------1----------------1-------1-------3-----|
|--------------------------------------------------------------------|
|---------2---------------2----------------2---------------2---------|
|-3---------------3----------------3---------------3-----------------|
|--------------------------------------------------------------------|

: . . . : . . .


|------------------------------------------------------0-------------|
|--------------------------------------------------------------------|
|-----2---------------0-------0----------------------------0---------|
|-0-----------------------0----------------0-------------------------|
|-----------------2--------------------------------------------------|
|---------3------------------------3---------------3-----------------|

Coda (Part I):
: . . . : . . .


|-0-------------------3------------------------0---------------------|
|------------------------------1-----------------------3-------------|
|--------------------------------------------------------------------|
|---------2---------------2----------------2---------------2---------|
|-3---------------3----------------3---------------3-----------------|
|--------------------------------------------------------------------|

F C /g
: . . . : . . .


|--------------------------------------------------------------------|
|-1---------------------------1--------------------------------------|
|---------------------2----------------------------------------------|
|---------3---------------3----------------2---------------2---------|
|----------------------------------3---------------------------------|
|-1---------------1--------------------------------3-----------------|

: . . . : . . .


|-----3-------3-/-5--3------------0---------------------------------|
|-1---------------------------1---------------(0)------3-------------|
|--------------------------------------------------------------------|
|---------2---------------2----------------2---------------0---------|
|-3--------------------------------3---------------------------------|
|--------------------------------------------------3-----------------|

: . . . : . .


|--------------------------------------0--------------------
|-1-----------------------------------1----------------------
|------------(0)------0-------0------0------------------------
|---------2-------------------------2--------------------------
|-3-----------------------2--------3----------------------------
|-----------------3----------------------------------------------

/ slide up
slide down
h hammer
s release
[] variations

To play the this songs, including Poor Boy, Long Ways From Home by Mississippi John Hurt by ukulele, the most crucial basic ukulele chords to learn are C chord, D chord, G chord, and Em chord.
These set you up to play a a lot of songs, and each of them is easy to master.

Gravatar Image
Like to play Ukulele and Sudoku Game

Leave a Reply

Your email address will not be published. Required fields are marked *