Polje snova by Van Gogh Ukulele Chords

Posted on

If you are searching for Polje snova ukulele chords, you’ve visit to the best place.
You can play versatile instrument Polje snova using ukulele or guitar.
This song by Van Gogh can also be played by that instruments.
=

Polje snova chords has rhythm and included in Hodi (1996) album.
You can also get other musical genres, including jazz ukulele chords, country music ukulele chords, pop ukulele chords, world music ukulele chords, and rock ukulele chords here.

Polje snova by Van Gogh Ukulele Chords


Van Gogh / Polje snova:

Uvod:


E|----------------|----------------|----------------|----------------|
H|----7-----------|(7)-------------|----------------|----------------|
G|8h9-------------|----------------|9-----------8---|(8)-------------|
D|----------------|----------------|----------------|--------9-------|
A|----------------|----------------|----------------|----------------|
E|----------------|----------------|----------------|----------------|


E|----------------|----------------|----17--16------|----------------|
H|----7-----------|(7)-------------|------------17--|(17)------------|
G|8h9-------------|----------------|----------------|----------------|
D|----------------|----------------|----------------|----------------|
A|----------------|----------------|----------------|----------------|
E|----------------|----------------|----------------|----------------|


E|-----14---------|(14)------------|17--16------14--|(14)------------|
H|16h17-----------|----------------|--------17------|----12------10--|
G|----------------|----------------|----------------|----------------|
D|----------------|----------------|----------------|----------------|
A|----------------|----------------|----------------|----------------|
E|----------------|----------------|----------------|----------------|


E|----------------|----------------|----------------|----------------|
H|12----------10--|----9-----------|4---5---7---0---|(0)-------------|
G|----------------|----------------|----------------|----------------|
D|----------------|----------------|----------------|----------------|
A|----------------|----------------|----------------|----------------|
E|----------------|----------------|----------------|----------------|

Strofa:


E|2-------2-----2-|--4-----2-------|0-------0-------|0-------0-------|
H|4-------4-----4-|--4-----4-------|2-------2-------|0-------0-------||
G|4-------4-----4-|--4-----4-------|2-------2-------|1-------1-------||3X
D|4-------4-----4-|--4-----4-------|2-------2-------|2-------2-------||
A|2-------2-----2-|--2-----2-------|0-------0-------|2-------2-------||
E|----------------|----------------|----------------|0-------0-------|/

Samo sklo – pi oci tone – mo
Poljem sno – va topli dale – ko
Da da mogu zna da bi
H(VII) H(VII) H(VII) H(VII)


E|7---------------|7---------------|7---------------|7---------------|
H|7---------------|7---------------|7---------------|7---------------|
G|8---------------|8---------------|8---------------|8---------------|
D|9---------------|9---------------|9---------------|9---------------|
A|9---------------|9---------------|9---------------|9---------------|
E|7---------------|7---------------|7---------------|7---------------|

Od sebe pustio je

Kao list da leti usamljena,
Nebom hladnih tudjih uzdaha
Da mogu zna da bi od sebe pustio je

Prelaz 1:
Hm G A(V)
Mozda bas sad je u mislima nekim,
Hm G A(V)
Samo glad,
Hm G A(V) E
Njeni su dani mastilo bez boje nadanja

Refren:
Divlje su oci zelje,
Hm G A(V) Hm
Kao pustinjska zedj, ona zna
Hm G A(V) Hm
Da krade poslednju kap sa usana
Hm G A(V) Hm
Koje duvaju u jedra ljubavi, ona je
Moja pustinjska zedj, ona sme
Da krade poslednju kap sa usana
Koje duvaju u jedra ljubavi

Prelaz 2:


E|----------------|----------------|----------------|----------------|
H|----------------|----------------|----------------|----------------|
G|----------------|----------------|----------------|----------------|
D|6-----6-6-------|----------------|4-----4-4-------|----------------|
A|4-----4-4---6---|(6)-------------|2-----2-2---4---|(4)-------------|
E|------------4---|(4)-------------|------------2---|(2)-------------|


E|----------------|----------------|----------------|----------------|
H|----------------|----------------|----------------|----------------|
G|----------------|----------------|----------------|----------------|
D|6-----6-6-------|----------------|4-----4-4-------|----------2-----|
A|4-----4-4---6---|(6)-------------|2-----2-2-------|4-2---4---0-----|
E|------------4---|(4)-------------|----------------|2-0---2---------|


E|----------------|----------------|----------------|----------------|
H|----------------|----------------|----------------|----------------|
G|----------------|----------------|----------------|----------------|
D|6-----6-6-------|----------------|4-----4-4-------|----------------|
A|4-----4-4---6---|(6)-------------|2-----2-2---4---|(4)-------------|
E|------------4---|(4)-------------|------------2---|(2)-------------|


E|----------------|----------------|----------------|----------------|
H|----------------|----------------|----------------|----------------|
G|----------------|------------1---|----------------|----------------|
D|6-----4-----9---|--6-----2h4-----|9-----4-----6---|(6)-------------|
A|4-----2-----7---|--4-------------|7-----2-----4---|(4)-------------|
E|----------------|----------------|----------------|----------------|

Ti samo spavaj, spavaj, spavaj, tako izgubljena
Poljem snova topla daleka
Da moze znas da bi iz tebe nestalo sve

Kraj:


E|----------------|----------------|----------------|----------------|
H|----------------|----------------|----------------|----------------|
G|----------------|----------------|----------------|----------------|
D|------------4---|(4)-------------|7-------7-------|----------------|
A|2-----2-2---2---|(2)-------------|5-------5-------|--7---7---7-----|
E|0-----0-0-------|----------------|----------------|--5---5---5-----|


E|----------------|----------------|----------------|----------------|
H|----------------|----------------|----------------|----------------|
G|----------------|----------------|----------------|----------------|
D|------------4---|(4)-------------|7-----7-7-------|----------------|
A|2-----2-2---2---|(2)-------------|5-----5-5-------|----------3-----|
E|0-----0-0-------|----------------|----------------|5-3---5---------|


E|----------------|----------------|----------------|----------------|
H|----------------|----------------|----------------|----------------|
G|----------------|----------------|----------------|----------------|
D|------------4---|(4)-------------|7-------7-------|----------------|
A|2-----2-2---2---|(2)-------------|5-------5-------|--7---7---7-----|
E|0-----0-0-------|----------------|----------------|--5---5---5-----|


E|----------------|----------------|----------------|----------------|
H|----------------|----------------|----------------|----------------|
G|----------------|----------------|----------------|----------------|
D|4-----2-----7---|--4-----0h2-4---|7-----2-----4---|(4)-------------|
A|2-----0-----5---|--2-------------|5-----0-----2---|(2)-------------|
E|----------------|----------------|----------------|----------------|

Korisceni akordi:
H -X24442
H6 -X24444
A -X02220
E -022100
H(VII)-799877
Hm -X24432
A(V) [-355433]-577655

To play the most songs, including Polje snova by Van Gogh by ukulele, the most important basic ukulele chords to learn are C chord, D chord, G chord, and Em chord.
These set you up to play a ton of songs, and each of them is easy to learn.

Gravatar Image
Like to play Ukulele and Sudoku Game

Leave a Reply

Your email address will not be published. Required fields are marked *