Pilgrim by Arch Enemy Ukulele Chords

Posted on

If you are looking for Pilgrim ukulele chords, you’ve visit to the best site.
You can play versatile instrument Pilgrim using ukulele or guitar.
This song by Arch Enemy can also be played by that instruments.
=

Pilgrim chords has rhythm and included in Burning Bridges (1999) album.
You can also find another musical style, including jazz ukulele chords, country music ukulele chords, pop ukulele chords, world music ukulele chords, and rock ukulele chords here.

Pilgrim by Arch Enemy Ukulele Chords


As recorded by Arch Enemy
(From the 1999 Album BURNING BRIDGES)

Transcribed by SoggieMufin

Words by Michael Amott Music by Michael Amott/Christopher Amott

Gtr I (B E A D F# B) – ‘Untitled’
Gtr II (B E A D F# B) – ‘Untitled’
Gtr III (B E A D F# B) – ‘Untitled’
Gtr IV (B E A D F# B) – ‘Untitled’

Intro
Q.170
N.C. A5 Eb5
6/8
Gtrs I, II


PM--| PM--| PM--| PM--|

Wx4 Q E E E E Q E E E E Q E E E E Q E E E E


|----------||-------------|------------|------------|------------|
|----------||o------------|------------|------------|------------|
|----------||--9--9-------|-9--9-------|------------|------------|
|----------||--7--7-7-7-7-|-7--7-7-7-7-|-8--8-------|-8--8-------|
|----------||o------------|------------|-6--6-6-6-6-|-6--6-6-6-6-|
|----------||-------------|------------|------------|------------|


PM--| PM--| PM--| PM--|

Q E E E E Q E E E E Q E E E E Q E E E E


|------------|------------|------------|-------------|
|------------|------------|------------|-------------|
|------------|------------|------------|-------------|
|------------|------------|------------|-------------|
|-8--8-------|-8--8-------|-7--7-------|-6--6--------|
|-6--6-6-6-6-|-6--6-6-6-6-|-5--5-5-5-5-|-4--4-4-4-4--|


PM--| PM--| PM--| PM--|

Q E E E E Q E E E E Q E E E E Q E E E E


|------------|------------|------------|-------------|
|------------|------------|------------|-------------|
|-9--9-------|-9--9-------|------------|-------------|
|-7--7-7-7-7-|-7--7-7-7-7-|-8--8-------|-8--8--------|
|------------|------------|-6--6-6-6-6-|-6--6-6-6-6--|
|------------|------------|------------|-------------|

1.
Gtr I
PM–| PM–|
Q E E E E Q E E E E H. H.


|------------|------------|---------|--------||
|------------|------------|---------|-------o||
|------------|------------|---------|--------||
|------------|------------|---------|--------||
|-8--8-------|-8--8-------|-7-------|-6-----o||
|-6--6-6-6-6-|-6--6-6-6-6-|-5-------|-4------||

|
| Gtr II
| PM–| PM–|
| Q E E E E Q E E E E H. H.


|------------|------------|---------|--------||
|------------|------------|---------|-------o||
|------------|------------|---------|--------||
|------------|------------|-7-------|-6------||
|-8--8-------|-8--8-------|---------|-------o||
|-6--6-6-6-6-|-6--6-6-6-6-|-5-------|-4------||

2.
Gtr I
PM–| PM–|
Q E E E E Q E E E E H. H.


|------------|------------|---------|-------|
|------------|------------|---------|-------|
|------------|------------|---------|-------|
|------------|------------|---------|-------|
|-8--8-------|-8--8-------|-7-------|-6-----|
|-6--6-6-6-6-|-6--6-6-6-6-|-5-------|-4-----|

|
| Gtr II
| PM–| PM–|
| Q E E E E Q E E E E H. H.


|------------|------------|---------|-------|
|------------|------------|---------|-------|
|------------|------------|-9-------|-8-----|
|------------|------------|-7-------|-6-----|
|-8--8-------|-8--8-------|---------|-------|
|-6--6-6-6-6-|-6--6-6-6-6-|---------|-------|

Lead – C. Amott
Gtr III[G/B]
H. +Q. Q. H. +H.


|------------|------------------|----------|---------|
|-15b17------|-(15)pb17---13----|-15-------|-(15)----|
|------------|------------------|----------|---------|
|------------|------------------|----------|---------|
|------------|------------------|----------|---------|
|------------|------------------|----------|---------|

|
| Gtrs I, II
| H. +H. H. +H.


|------------|------------------|----------|---------|
|------------|------------------|----------|---------|
|--9---------|--(9)-------------|-12-------|-(12)----|
|--7---------|--(7)-------------|--9-------|--(9)----|
|------------|------------------|----------|---------|
|------------|------------------|----------|---------|

H. +Q. Q. E Q +Q. +H.


|----------|----------------|----------------|-------------------|
|-15-------|-(15)---15b17---|-13-------------|-------------------|
|----------|----------------|----14---(14)---|-(14)--------------|
|----------|----------------|----------------|-------------------|
|----------|----------------|----------------|-------------------|
|----------|----------------|----------------|-------------------|

|


| PM---| PM----|

| H. +H. E E E Q. E E E Q.


|----------|----------------|----------------|-------------------|
|----------|----------------|----------------|-------------------|
|----------|----------------|----------------|-------------------|
|--9-------|--(9)-----------|----------10----|------------12-----|
|--7-------|--(7)-----------|--8--8-8---8----|--10--10-10-10-----|
|----------|----------------|----------------|-------------------|

Q. Q. Q. Q. [G/B] H. q E E E E


|------------|---------------|----------|--------------------|
|------------|-13----15b17---|-15-------|--17---15-13-12-----|
|------14----|---------------|----------|----------------14--|
|------------|---------------|----------|--------------------|
|------------|---------------|----------|--------------------|
|------------|---------------|----------|--------------------|

|
| H. +H. H. +H.


|------------|---------------|----------|--------------------|
|------------|---------------|----------|--------------------|
|-9----------|-(9)-----------|-12-------|-(12)---------------|
|-7----------|-(7)-----------|--9-------|--(9)---------------|
|------------|---------------|----------|--------------------|
|------------|---------------|----------|--------------------|

H. Q Q Q [(E5)] H. +H.


|----------|----------------|------------|-------------|
|----------|----------------|------------|-------------|
|-12-------|------12----14--|-14b16------|-(14)pb16----|
|----------|-14-------------|------------|-------------|
|----------|----------------|------------|-------------|
|----------|----------------|------------|-------------|

|
| H. +Q. Q. H. +H.


|----------|----------------|------------|-------------|
|----------|----------------|------------|-------------|
|----------|----------------|------------|-------------|
|--5-------|-(5)------------|------------|-------------|
|--3-------|-(3)-----5------|--7---------|--(7)--------|
|----------|----------------|------------|-------------|

H. +Q. E +E E [G/B] H. H.


|------------|---------------------------|----------|--15-----|
|-15b17------|-(15)pb17---15pb17-(15)-13-|-15-------|---------|
|------------|---------------------------|----------|---------|
|------------|---------------------------|----------|---------|
|------------|---------------------------|----------|---------|
|------------|---------------------------|----------|---------|

|
| H. +H. H. +H.


|------------|---------------------------|----------|---------|
|------------|---------------------------|----------|---------|
|--9---------|--(9)----------------------|-12-------|-(12)----|
|--7---------|--(7)----------------------|--9-------|--(9)----|
|------------|---------------------------|----------|---------|
|------------|---------------------------|----------|---------|

E E E E E E Q. Q. H. +H.


|-17--------------------|---------------|---------------|--------------------|
|-----20-17-------17-20-|-17------------|---------------|--------------------|
|-----------19b21-------|-------19b21r|17------------|-(17)--------------|
|-----------------------|---------------|---------------|--------------------|
|-----------------------|---------------|---------------|--------------------|
|-----------------------|---------------|---------------|--------------------|

|


| PM---| PM-----|

| H. +H. E E E Q. E E E Q.


|-----------------------|---------------|---------------|--------------------|
|-----------------------|---------------|---------------|--------------------|
|-----------------------|---------------|---------------|--------------------|
|--9--------------------|-(9)-----------|---------10----|-------------12-----|
|--7--------------------|-(7)-----------|--8--8-8--8----|--10---10-10-10-----|
|-----------------------|---------------|---------------|--------------------|

Q. Q. Q. Q. [G/B] H. q E E E E


|------------|---------------|----------|--------------------|
|------------|-13----15b17---|-15-------|--17---15-13-12-----|
|------14----|---------------|----------|----------------14--|
|------------|---------------|----------|--------------------|
|------------|---------------|----------|--------------------|
|------------|---------------|----------|--------------------|

|
| H. +H. H. +H.


|------------|---------------|----------|--------------------|
|------------|---------------|----------|--------------------|
|-9----------|-(9)-----------|-12-------|-(12)---------------|
|-7----------|-(7)-----------|--9-------|--(9)---------------|
|------------|---------------|----------|--------------------|
|------------|---------------|----------|--------------------|

C5 (E5) N.C.
H. Q Q Q H. +H.


|----------|----------------|------------|------------------|
|----------|----------------|------------|------------------|
|-12-------|------12----14--|-14b16------|-(14)pb16---------|
|----------|-14-------------|------------|------------------|
|----------|----------------|------------|------------------|
|----------|----------------|------------|------------------|

|
| H. +Q. Q. H. Q. Q.


|----------|----------------|------------|------------------|
|----------|----------------|------------|------------------|
|----------|----------------|------------|------------------|
|--5-------|-(5)------------|------------|------------------|
|--3-------|-(3)-----5------|--7---------|---3--------2-----|
|----------|----------------|------------|------------------|

Verse
N.C.
Gtr I


PM--------------------------------------------|

E E E E E E E E E E E E E E E E E E E E E Q.


|-------------|-------------|-------------|-------------|
|-------------|-------------|-------------|-------------|
|-------------|-------------|-------------|-------14----|
|-------------|-------------|-------------|-------------|
|-------------|-------------|-------------|-------12----|
|-0-0-0-0-0-0-|-0-0-0-0-0-0-|-0-0-0-0-0-0-|-0-0-0-------|

|
| Gtr II


| PM--------------------------------------------|

| E E E E E E E E E E E E E E E E E E E E E Q.


|-------------|-------------|-------------|-------------|
|-------------|-------------|-------------|-------------|
|-------------|-------------|-------------|-------10----|
|-------------|-------------|-------------|-------------|
|-------------|-------------|-------------|--------8----|
|-0-0-0-0-0-0-|-0-0-0-0-0-0-|-0-0-0-0-0-0-|-0-0-0-------|
PM----------------| ~~

Q. E E E E E E E E E Q. Q. Q. Q.


|-------------|-------------|---------------|-------------|
|-------------|-------------|---------------|-------------|
|-13----------|-------------|-4tr7---1tr4---|-------------|
|-------------|-------------|---------------|-------------|
|-11----------|-------------|---------------|-2tr5--------|
|-------0-0-0-|-0-0-0-0-0-0-|---------------|--------4----|

|


| PM----------------| ~~

| Q. E E E E E E E E E Q. Q. Q. Q.


|-------------|-------------|---------------|-------------|
|-------------|-------------|---------------|-------------|
|--9----------|-------------|---------------|-------------|
|-------------|-------------|-6tr9---3tr6---|-------------|
|--7----------|-------------|---------------|-------------|
|-------0-0-0-|-0-0-0-0-0-0-|---------------|-4tr7---1----|
PM--------------------------------------|

Q. E E E E E E E E E E E E E E E E E E Q.


|------------|-------------|-------------|-------------|
|------------|-------------|-------------|-------------|
|------------|-------------|-------------|-------14----|
|------------|-------------|-------------|-------------|
|------------|-------------|-------------|-------12----|
|-0----0-0-0-|-0-0-0-0-0-0-|-0-0-0-0-0-0-|-0-0-0-------|

|


| PM--------------------------------------|

| Q. E E E E E E E E E E E E E E E E E E Q.


|------------|-------------|-------------|-------------|
|------------|-------------|-------------|-------------|
|------------|-------------|-------------|-------10----|
|------------|-------------|-------------|-------------|
|------------|-------------|-------------|--------8----|
|-0----0-0-0-|-0-0-0-0-0-0-|-0-0-0-0-0-0-|-0-0-0-------|
PM----------------| ~~ ~~

Q. E E E E E E E E E E E E Q. E E E Q.


|-------------|-------------|------------|------------|
|-------------|-------------|-------6----|------------|
|-13----------|-------------|-4-5-7------|-7-5-4------|
|-------------|-------------|------------|-------6----|
|-11----------|-------------|------------|------------|
|-------0-0-0-|-0-0-0-0-0-0-|------------|------------|

|


| PM----------------| ~~ ~~

| Q. E E E E E E E E E E E E Q. E E E Q.


|-------------|-------------|------------|------------|
|-------------|-------------|-------3----|------------|
|--9----------|-------------|-1-2-4------|-4-2-1------|
|-------------|-------------|------------|-------3----|
|--7----------|-------------|------------|------------|
|-------0-0-0-|-0-0-0-0-0-0-|------------|------------|
PM--------------------------------------|

Q. E E E E E E E E E E E E E E E E E E Q.


||-------------|-------------|-------------|--------------|
||o------------|-------------|-------------|--------------|
||-------------|-------------|-------------|-------14-----|
||-------------|-------------|-------------|--------------|
||o------------|-------------|-------------|-------12-----|
||--0----0-0-0-|-0-0-0-0-0-0-|-0-0-0-0-0-0-|-0-0-0--------|

|


| PM--------------------------------------|

| Q. E E E E E E E E E E E E E E E E E E Q.


||-------------|-------------|-------------|--------------|
||o------------|-------------|-------------|--------------|
||-------------|-------------|-------------|-------10-----|
||-------------|-------------|-------------|--------------|
||o------------|-------------|-------------|--------8-----|
||--0----0-0-0-|-0-0-0-0-0-0-|-0-0-0-0-0-0-|-0-0-0--------|
PM----------------| ~~

Q. E E E E E E E E E Q. Q. Q. Q.


|-------------|-------------|---------------|-------------|
|-------------|-------------|---------------|-------------|
|-13----------|-------------|-4tr7---1tr4---|-------------|
|-------------|-------------|---------------|-------------|
|-11----------|-------------|---------------|-2tr5--------|
|-------0-0-0-|-0-0-0-0-0-0-|---------------|--------4----|

|


| PM----------------| ~~

| Q. E E E E E E E E E Q. Q. Q. Q.


|-------------|-------------|---------------|-------------|
|-------------|-------------|---------------|-------------|
|--9----------|-------------|---------------|-------------|
|-------------|-------------|-6tr9---3tr6---|-------------|
|--7----------|-------------|---------------|-------------|
|-------0-0-0-|-0-0-0-0-0-0-|---------------|-4tr7---1----|
PM--------------------------------------|

Q. E E E E E E E E E E E E E E E E E E Q.


|------------|-------------|-------------|-------------|
|------------|-------------|-------------|-------------|
|------------|-------------|-------------|-------14----|
|------------|-------------|-------------|-------------|
|------------|-------------|-------------|-------12----|
|-0----0-0-0-|-0-0-0-0-0-0-|-0-0-0-0-0-0-|-0-0-0-------|

|


| PM--------------------------------------|

| Q. E E E E E E E E E E E E E E E E E E Q.


|------------|-------------|-------------|-------------|
|------------|-------------|-------------|-------------|
|------------|-------------|-------------|-------10----|
|------------|-------------|-------------|-------------|
|------------|-------------|-------------|--------8----|
|-0----0-0-0-|-0-0-0-0-0-0-|-0-0-0-0-0-0-|-0-0-0-------|
PM----------------| ~~ ~~

Q. E E E E E E E E E E E E Q. E E E Q. 3x


|-------------|-------------|------------|-------------||
|-------------|-------------|-------6----|------------o||
|-13----------|-------------|-4-5-7------|-7-5-4-------||
|-------------|-------------|------------|-------6-----||
|-11----------|-------------|------------|------------o||
|-------0-0-0-|-0-0-0-0-0-0-|------------|-------------||

|


| PM----------------| ~~ ~~

| Q. E E E E E E E E E E E E Q. E E E Q. 3x


|-------------|-------------|------------|-------------||
|-------------|-------------|-------3----|------------o||
|--9----------|-------------|-1-2-4------|-4-2-1-------||
|-------------|-------------|------------|-------3-----||
|--7----------|-------------|------------|------------o||
|-------0-0-0-|-0-0-0-0-0-0-|------------|-------------||

Chorus
Q200
$
$$
E5 C5 D5 E5
Gtrs I, II
Q E E +E E Q E E Q Q E E Q E E +E E Q E E Q Q E E
||——————|—————|—————–|—————–||
||o—————–|—————|—————–|—————-o||
||——————|—————|—————–|—————–||
||–9–x-9-(9)-x-9–|-x-x-5–5–x-x-|-7–x-7-(7)-x-7–|-x-x-9–9–x-x—||
||o-7–x-7-(7)-x-7–|-x-x-3–3–x-x-|-5–x-5-(5)-x-5–|-x-x-7–7–x-x–o||
||——————|—————|—————–|—————–||

Gtr III
Q. E +Q Q +H +E E E E
|———————-|———————-|
|———————-|———————-|
|-/12—–11-(11)—9–|-(9)——(9)-9-11-12-|
|———————-|———————-|
|———————-|———————-|
|———————-|———————-|
|
| Gtrs I, II
| Q E E +E E Q E E Q Q E E
|———————-|———————-|
|———————-|———————-|
|———————-|———————-|
|—9—x–9–(9)-x-9–|–x–x-5—5—–x–x-|
|—7—x–7–(7)-x-7–|–x–x-3—3—–x–x-|
|———————-|———————-|

Q. E +Q Q +E +E +Q H
|———————-|——————————-|
|———————-|——————————-|
|-14—–12-(12)—11–|-(11)b12-(11)pb12r(11)–9——|
|———————-|——————————-|
|———————-|——————————-|
|———————-|——————————-|
|
| Q E E +E E Q E E Q Q E E
|———————-|——————————-|
|———————-|——————————-|
|———————-|——————————-|
|–7—x–7–(7)-x–7–|—x——-x——–9—9–x-x-|
|–5—x–5–(5)-x–5–|—x——-x——–7—7–x-x-|
|———————-|——————————-|

Q. E +Q Q +W
|———————-|—————–|
|———————-|—————–|
|-/12—–11-(11)—9–|-(9)————-|
|———————-|—————–|
|———————-|—————–|
|———————-|—————–|
|
| Q E E +E E Q E E Q Q E E
|———————-|—————–|
|———————-|—————–|
|———————-|—————–|
|—9—x–9–(9)-x-9–|–x–x-5–5–x-x-|
|—7—x–7–(7)-x-7–|–x–x-3–3–x-x-|
|———————-|—————–|

Q E E +E E Q +W
|——————-|——————-|
|——————-|——————-|
|————7——|——————-|
|-9–7-9-(9)—–|-()————-|
|——————-|——————-|
|——————-|——————-|
|
| Q E E +E E Q E E Q Q E E
|——————-|——————-|
|——————-|——————-|
|——————-|——————-|
|-7–x-7-(7)-x–7—|—x—x-9–9–x-x-|
|-5–x-5-(5)-x–5—|—x—x-7–7–x-x-|
|——————-|——————-|

Gtr IV
Q. E +Q Q +H +E E E E
|———————–|————————-|
|———————–|————————-|
|-/16—–14-(14)—12–|-(12)——(12)-12-14-16-|
|———————–|————————-|
|———————–|————————-|
|———————–|————————-|
|
| Gtr III
| Q. E +Q Q +H +E E E E
|———————–|————————-|
|———————–|————————-|
|-/12—–11-(11)—-9–|–(9)——-(9)–9-11-12-|
|———————–|————————-|
|———————–|————————-|
|———————–|————————-|
|
| Gtrs I, II
| Q E E +E E Q E E Q Q E E
|———————–|————————-|
|———————–|————————-|
|———————–|————————-|
|—9—x–9–(9)-x–9–|—x–x-5—-5——x–x-|
|—7—x–7–(7)-x–7–|—x–x-3—-3——x–x-|
|———————–|————————-|

To Coda
To Coda
Q. E +Q Q +E +E +Q H
|———————-|——————————–|
|———————-|——————————–|
|-17—–16-(16)—14–|-(14)b16-(14)pb16r(14)–12——|
|———————-|——————————–|
|———————-|——————————–|
|———————-|——————————–|
|
| Q. E +Q Q +E +E +Q H
|———————-|——————————–|
|———————-|——————————–|
|-14—–12-(12)—11–|-(11)b12-(11)pb12r(11)—9——|
|———————-|——————————–|
|———————-|——————————–|
|———————-|——————————–|
|
| Q E E +E E Q E E Q Q E E
|———————-|——————————–|
|———————-|——————————–|
|———————-|——————————–|
|–7—x–7–(7)-x–7–|—x——-x——–9—-9–x-x-|
|–5—x–5–(5)-x–5–|—x——-x——–7—-7–x-x-|
|———————-|——————————–|

>
Q. E +Q Q +W
|———————–|——————|
|———————–|——————|
|-/16—–14-(14)—12–|-(12)————-|
|———————–|——————|
|———————–|——————|
|———————–|——————|
|
| Q. E +Q Q +W
|———————–|——————|
|———————–|——————|
|-/12—–11-(11)—-9–|–(9)————-|
|———————–|——————|
|———————–|——————|
|———————–|——————|
|
| Q E E +E E Q E E Q Q E E
|———————–|——————|
|———————–|——————|
|———————–|——————|
|—9—x–9–(9)-x–9–|—x–x-5–5–x-x-|
|—7—x–7–(7)-x–7–|—x–x-3–3–x-x-|
|———————–|——————|

W H H
|—————–|———-7/——|
|—————–|——————|
|—————–|——————|
|—————–|——————|
|—————–|——————|
|—————–|——————|
|
| Q E E +E E Q +W
|—————–|——————|
|—————–|——————|
|————7—-|——————|
|-9–7-9-(9)—9–|-(9)————–|
|—————–|——————|
|—————–|——————|
|
| Q E E +E E Q E E Q Q E E
|—————–|——————|
|—————–|——————|
|—————–|——————|
|-7–x-7-(7)-x-7–|–x–x-9–9—x-x-|
|-5–x-5-(5)-x-5–|–x–x-7–7—x-x-|
|—————–|——————|

Lead – C. Amott
Q.170
N.C.
6/8
Gtr III
H. +Q. Q. H. +Q. Q.
|-16b19|(16)r—–16b19—–|—————|—————-|
|——————|———————|-18————|-(18)—–15—-|
|——————|———————|—————|—————-|
|——————|———————|—————|—————-|
|——————|———————|—————|—————-|
|——————|———————|—————|—————-|
|
| Gtr I
| PM————————————————————-|
| E E E E E E E E E E E E E E E E E E E E E Q.
|——————|———————|—————|—————-|
|——————|———————|—————|—————-|
|——————|———————|—————|———-14—-|
|——————|———————|—————|—————-|
|——————|———————|—————|———-12—-|
|–0—–0-0-0-0-0-|—0—0-0–0—-0-0-|–0–0-0-0-0-0-|—0–0-0——-|
|
| Gtr II
| PM————————————————————-|
| E E E E E E E E E E E E E E E E E E E E E Q.
|——————|———————|—————|—————-|
|——————|———————|—————|—————-|
|——————|———————|—————|———-10—-|
|——————|———————|—————|—————-|
|——————|———————|—————|———–8—-|
|–0—–0-0-0-0-0-|—0—0-0–0—-0-0-|–0–0-0-0-0-0-|—0–0-0——-|

H. +Q. Q. H. +H.
|—————-|———————|—————-|—————|
|-18b21|(18)r—–18b21—–|-17————-|-(17)———-|
|—————-|———————|—————-|—————|
|—————-|———————|—————-|—————|
|—————-|———————|—————-|—————|
|—————-|———————|—————-|—————|
|
| PM————————| ~~
| Q. E E E E E E E E E Q. Q. Q. Q.
|—————-|———————|—————-|—————|
|—————-|———————|—————-|—————|
|-13————-|———————|–4tr7—1tr4—|—————|
|—————-|———————|—————-|—————|
|-11————-|———————|—————-|—2tr5——–|
|———-0-0-0-|—0—0-0–0—-0-0-|—————-|———-4—-|
|
| PM————————| ~~
| Q. E E E E E E E E E Q. Q. Q. Q.
|—————-|———————|—————-|—————|
|—————-|———————|—————-|—————|
|–9————-|———————|—————-|—————|
|—————-|———————|–6tr9—3tr6—|—————|
|–7————-|———————|—————-|—————|
|———-0-0-0-|—0—0-0–0—-0-0-|—————-|—4tr7—1—-|

Q Q Q Q Q Q Q Q Q Q Q Q
|-0—0—0—|-0—0—0—|-0—-0—-0—|–0—-0——0–|
|-5—6—6—|-6—9—9—|-9—10—10—|-10—12—–12–|
|————-|————-|—————|—————–|
|————-|————-|—————|—————–|
|————-|————-|—————|—————–|
|————-|————-|—————|—————–|
|
| PM—————————————–|
| Q. E E E E E E E E E E E E E E E E E E Q.
|————-|————-|—————|—————–|
|————-|————-|—————|—————–|
|————-|————-|—————|———14——|
|————-|————-|—————|—————–|
|————-|————-|—————|———12——|
|-0—–0-0-0-|-0-0-0-0-0-0-|-0-0–0-0–0-0-|–0-0–0———|
|
| PM—————————————–|
| Q. E E E E E E E E E E E E E E E E E E Q.
|————-|————-|—————|—————–|
|————-|————-|—————|—————–|
|————-|————-|—————|———10——|
|————-|————-|—————|—————–|
|————-|————-|—————|———-8——|
|-0—–0-0-0-|-0-0-0-0-0-0-|-0-0–0-0–0-0-|–0-0–0———|

Q Q Q Q. E E E H. +H.
|–0—-0—-0—|——————|————–|—————|
|-12—15—15—|-15——13h15p13-|-12———–|-(12)———-|
|—————-|——————|————–|—————|
|—————-|——————|————–|—————|
|—————-|——————|————–|—————|
|—————-|——————|————–|—————|
|
| PM———————| ~~ ~~
| Q. E E E E E E E E E E E E Q. E E E Q.
|—————-|——————|————–|—————|
|—————-|——————|———6—-|—————|
|-13————-|——————|–4–5-7——|—7–5-4——|
|—————-|——————|————–|———-6—-|
|-11————-|——————|————–|—————|
|———0–0-0-|–0–0-0–0–0–0-|————–|—————|
|
| ~~ ~~
| Q. E E E E E E E E E E E E Q. E E E Q.
|—————-|——————|————–|—————|
|—————-|——————|———3—-|—————|
|–9————-|——————|–1–2-4——|—4–2-1——|
|—————-|——————|————–|———-3—-|
|–7————-|——————|————–|—————|
|———0–0-0-|–0–0-0–0–0–0-|————–|—————|

|————–|————-|—————-|——————|
|————–|————-|—————-|———-9—–9-|
|————–|————-|———9—-9-|-10-9-10—–10—|
|————–|-7—7-9-7-9-|-10-9-10—10—|——————|
|-7–6-7-8-7-8-|—8———|—————-|——————|
|————–|————-|—————-|——————|
|
| PM——————————————|
| Q. E E E E E E E E E E E E E E E E E E Q.
|————–|————-|—————-|——————|
|————–|————-|—————-|——————|
|————–|————-|—————-|———14——-|
|————–|————-|—————-|——————|
|————–|————-|—————-|———12——-|
|-0——0-0-0-|-0-0-0-0-0-0-|–0-0–0-0–0-0-|–0-0–0———-|
|
| PM——————————————|
| Q. E E E E E E E E E E E E E E E E E E Q.
|————–|————-|—————-|——————|
|————–|————-|—————-|——————|
|————–|————-|—————-|———10——-|
|————–|————-|—————-|——————|
|————–|————-|—————-|———-8——-|
|-0——0-0-0-|-0-0-0-0-0-0-|–0-0–0-0–0-0-|–0-0–0———-|

|——————-|————-10—-|
|-10–9-10-12-10-12-|-13-10-12-13—-12-|
|——————-|——————-|
|——————-|——————-|
|——————-|——————-|
|——————-|——————-|
|
| PM———————–|
| Q. E E E E E E E E E
|——————-|——————-|
|——————-|——————-|
|-13—————-|——————-|
|——————-|——————-|
|-11—————-|——————-|
|———–0–0–0-|–0–0–0–0–0–0-|
|
| PM———————–|
| Q. E E E E E E E E E
|——————-|——————-|
|——————-|——————-|
|–9—————-|——————-|
|——————-|——————-|
|–7—————-|——————-|
|———–0–0–0-|–0–0–0–0–0–0-|

q q q q q Q
|——–10——12–|-10—————|
|-13—————–|——–13—-10–|
|——————–|——————|
|——————–|——————|
|——————–|——————|
|——————–|——————|
|
| ~~
| Q. Q. Q. Q.
|——————–|——————|
|——————–|——————|
|–4tr7—–1tr4—–|——————|
|——————–|——————|
|——————–|–2tr5————|
|——————–|———–4——|
|
| ~~
| Q. Q. Q. Q.
|——————–|——————|
|——————–|——————|
|——————–|——————|
|–6tr9—–3tr6—–|——————|
|——————–|——————|
|——————–|–4tr7—–1——|

~~
H. E E E E E E E E E E E E E E E E Q
|————|-10-7———-|-13-10————|-16-13————|
|-9———-|——9——–|——-12———|——-15———|
|————|——–10-7—|———-13-10s8-|———-13——|
|————|————-9-|——————|————–15–|
|————|—————|——————|——————|
|————|—————|——————|——————|
|
| PM———————————————–|
| Q. E E E E E E E E E E E E E E E E E E Q.
|————|—————|——————|——————|
|————|—————|——————|——————|
|————|—————|——————|———-14——|
|————|—————|——————|——————|
|————|—————|——————|———-12——|
|-0—-0-0-0-|–0-0-0–0-0-0-|–0–0–0–0–0-0-|–0–0–0———|
|
| PM———————————————–|
| Q. E E E E E E E E E E E E E E E E E E Q.
|————|—————|——————|——————|
|————|—————|——————|——————|
|————|—————|——————|———-10——|
|————|—————|——————|——————|
|————|—————|——————|———–8——|
|-0—-0-0-0-|–0-0-0–0-0-0-|–0–0–0–0–0-0-|–0–0–0———|

|—4:3—|
H. +Q. Q E E H. +H.
|-17b19———|-(17)pb19—–17—19—17-|-16———–|-(16)———-|
|—————|—————————|————–|—————|
|—————|—————————|————–|—————|
|—————|—————————|————–|—————|
|—————|—————————|————–|—————|
|—————|—————————|————–|—————|
|
| PM—————————| ~~ ~~
| Q. E E E E E E E E E E E E Q. E E E Q.
|—————|—————————|————–|—————|
|—————|—————————|———6—-|—————|
|-13————|—————————|–4–5-7——|—7–5-4——|
|—————|—————————|————–|———-6—-|
|-11————|—————————|————–|—————|
|———0-0-0-|—0——0-0–0-0—-0—-|————–|—————|
|
| PM—————————| ~~ ~~
| Q. E E E E E E E E E E E E Q. E E E Q.
|—————|—————————|————–|—————|
|—————|—————————|———3—-|—————|
|–9————|—————————|–1–2-4——|—4–2-1——|
|—————|—————————|————–|———-3—-|
|–7————|—————————|————–|—————|
|———0-0-0-|—0——0-0–0-0—-0—-|————–|—————|

Verse
N.C.
Q. Q. Q. Q. Q. Q. Q. Q.
|-22b24———-|-22b24————|-22b24————|-(22)b24———–|
|—————-|——————|——————|——————-|
|—————-|——————|——————|——————-|
|—————-|——————|——————|——————-|
|—————-|——————|——————|——————-|
|—————-|——————|——————|——————-|
|
| PM——————————————————-|
| Q. E E E E E E E E E E E E E E E E E E Q.
|—————-|——————|——————|——————-|
|—————-|——————|——————|——————-|
|—————-|——————|——————|————-14—-|
|—————-|——————|——————|——————-|
|—————-|——————|——————|————-12—-|
|–0——0–0-0-|–0—-0-0-0–0-0-|–0—-0-0-0–0-0-|—0—–0-0——-|
|
| PM——————————————————-|
| Q. E E E E E E E E E E E E E E E E E E Q.
|—————-|——————|——————|——————-|
|—————-|——————|——————|——————-|
|—————-|——————|——————|————-10—-|
|—————-|——————|——————|——————-|
|—————-|——————|——————|————–8—-|
|–0——0–0-0-|–0—-0-0-0–0-0-|–0—-0-0-0–0-0-|—0—–0-0——-|

Gtr I
PM—————-| ~~
Q. E E E E E E E E E Q. Q. Q. Q.
|————-|————-|—————|————-|
|————-|————-|—————|————-|
|-13———-|————-|-4tr7—1tr4—|————-|
|————-|————-|—————|————-|
|-11———-|————-|—————|-2tr5——–|
|——-0-0-0-|-0-0-0-0-0-0-|—————|——–4—-|
|
| Gtr II
| PM—————-| ~~
| Q. E E E E E E E E E Q. Q. Q. Q.
|————-|————-|—————|————-|
|————-|————-|—————|————-|
|–9———-|————-|—————|————-|
|————-|————-|-6tr9—3tr6—|————-|
|–7———-|————-|—————|————-|
|——-0-0-0-|-0-0-0-0-0-0-|—————|-4tr7—1—-|

PM————————————–|
Q. E E E E E E E E E E E E E E E E E E Q.
|————|————-|————-|————-|
|————|————-|————-|————-|
|————|————-|————-|——-14—-|
|————|————-|————-|————-|
|————|————-|————-|——-12—-|
|-0—-0-0-0-|-0-0-0-0-0-0-|-0-0-0-0-0-0-|-0-0-0——-|
|
| PM————————————–|
| Q. E E E E E E E E E E E E E E E E E E Q.
|————|————-|————-|————-|
|————|————-|————-|————-|
|————|————-|————-|——-10—-|
|————|————-|————-|————-|
|————|————-|————-|——–8—-|
|-0—-0-0-0-|-0-0-0-0-0-0-|-0-0-0-0-0-0-|-0-0-0——-|

PM—————-| ~~ ~~
Q. E E E E E E E E E E E E Q. E E E Q.
|————-|————-|————|————|
|————-|————-|——-6—-|————|
|-13———-|————-|-4-5-7——|-7-5-4——|
|————-|————-|————|——-6—-|
|-11———-|————-|————|————|
|——-0-0-0-|-0-0-0-0-0-0-|————|————|
|
| PM—————-| ~~ ~~
| Q. E E E E E E E E E E E E Q. E E E Q.
|————-|————-|————|————|
|————-|————-|——-3—-|————|
|–9———-|————-|-1-2-4——|-4-2-1——|
|————-|————-|————|——-3—-|
|–7———-|————-|————|————|
|——-0-0-0-|-0-0-0-0-0-0-|————|————|

PM————————————–|
Q. E E E E E E E E E E E E E E E E E E Q.
|————|————-|————-|————-|
|————|————-|————-|————-|
|————|————-|————-|——-14—-|
|————|————-|————-|————-|
|————|————-|————-|——-12—-|
|-0—-0-0-0-|-0-0-0-0-0-0-|-0-0-0-0-0-0-|-0-0-0——-|
|
| PM————————————–|
| Q. E E E E E E E E E E E E E E E E E E Q.
|————|————-|————-|————-|
|————|————-|————-|————-|
|————|————-|————-|——-10—-|
|————|————-|————-|————-|
|————|————-|————-|——–8—-|
|-0—-0-0-0-|-0-0-0-0-0-0-|-0-0-0-0-0-0-|-0-0-0——-|

PM—————-| ~~
Q. E E E E E E E E E Q. Q. Q. Q.
|————-|————-|—————|————-|
|————-|————-|—————|————-|
|-13———-|————-|-4tr7—1tr4—|————-|
|————-|————-|—————|————-|
|-11———-|————-|—————|-2tr5——–|
|——-0-0-0-|-0-0-0-0-0-0-|—————|——–4—-|
|
| PM—————-| ~~
| Q. E E E E E E E E E Q. Q. Q. Q.
|————-|————-|—————|————-|
|————-|————-|—————|————-|
|–9———-|————-|—————|————-|
|————-|————-|-6tr9—3tr6—|————-|
|–7———-|————-|—————|————-|
|——-0-0-0-|-0-0-0-0-0-0-|—————|-4tr7—1—-|

PM————————————–|
Q. E E E E E E E E E E E E E E E E E E Q.
|————|————-|————-|————-|
|————|————-|————-|————-|
|————|————-|————-|——-14—-|
|————|————-|————-|————-|
|————|————-|————-|——-12—-|
|-0—-0-0-0-|-0-0-0-0-0-0-|-0-0-0-0-0-0-|-0-0-0——-|
|
| PM————————————–|
| Q. E E E E E E E E E E E E E E E E E E Q.
|————|————-|————-|————-|
|————|————-|————-|————-|
|————|————-|————-|——-10—-|
|————|————-|————-|————-|
|————|————-|————-|——–8—-|
|-0—-0-0-0-|-0-0-0-0-0-0-|-0-0-0-0-0-0-|-0-0-0——-|

D.S. al Coda
PM—————-| ~~ ~~
Q. E E E E E E E E E E E E Q. E E E Q.
|————-|————-|————|————|
|————-|————-|——-6—-|————|
|-13———-|————-|-4-5-7——|-7-5-4——|
|————-|————-|————|——-6—-|
|-11———-|————-|————|————|
|——-0-0-0-|-0-0-0-0-0-0-|————|————|
|
| PM—————-| ~~ ~~
| Q. E E E E E E E E E E E E Q. E E E Q.
|————-|————-|————|————|
|————-|————-|——-3—-|————|
|–9———-|————-|-1-2-4——|-4-2-1——|
|————-|————-|————|——-3—-|
|–7———-|————-|————|————|
|——-0-0-0-|-0-0-0-0-0-0-|————|————|

Q200
&
E5 C5 D5 E5
Gtr IV
>
Q. E +Q Q +W W W
|———————–|——————|—————–|—————–|
|———————–|——————|—————–|—————–|
|-/16—–14-(14)—12–|-(12)————-|—————–|—————–|
|———————–|——————|—————–|—————–|
|———————–|——————|—————–|—————–|
|———————–|——————|—————–|—————–|
|
| Gtr III
| Q. E +Q Q +W Q E E +E E Q +W
|———————–|——————|—————–|—————–|
|———————–|——————|—————–|—————–|
|-/12—–11-(11)—-9–|–(9)————-|————7—-|—————–|
|———————–|——————|-9–7-9-(9)—9–|-(9)————-|
|———————–|——————|—————–|—————–|
|———————–|——————|—————–|—————–|
|
| Gtrs I, II
| Q E E +E E Q E E Q Q E E Q E E +E E Q E E Q Q E E
|———————–|——————|—————–|—————–|
|———————–|——————|—————–|—————–|
|———————–|——————|—————–|—————–|
|—9—x–9–(9)-x–9–|—x–x-5–5–x-x-|-7–x-7-(7)-x-7–|–x–x-9–9–x-x-|
|—7—x–7–(7)-x–7–|—x–x-3–3–x-x-|-5–x-5-(5)-x-5–|–x–x-7–7–x-x-|
|———————–|——————|—————–|—————–|

Lead – M. Amott
Q210
Gtr III
~~~~~~~~~~~
|————-10-15-|–15b17—-15——|
|———-11——-|——————-|
|——-12———-|——————-|
|——————-|——————-|
|——————-|——————-|
|——————-|——————-|
|
| Gtrs I, II
| W +H. Q
|——————-|——————-|
|——————-|——————-|
|——————-|——————-|
|-12—————-|-(12)———-10–|
|-10—————-|-(10)———–8–|
|——————-|——————-|

+E E E E E E E E Q Q +Q Q
|-(15)-18————10-15-|-15b17–15b18–(15)pb18r15—|
|——————11——-|——————————|
|—————12———-|——————————|
|————12————-|——————————|
|—————————|——————————|
|—————————|——————————|
|
| W +H. Q
|—————————|——————————|
|—————————|——————————|
|—————————|——————————|
|—8———————–|-(8)———————-8—|
|—6———————–|-(6)———————-6—|
|—————————|——————————|

+Q E E E E E E H Q +Q
|-(15)————–10-15-|-15b17—-15b18r(15)–|
|—————-11——-|———————–|
|————-12———-|———————–|
|———/12————-|———————–|
|————————-|———————–|
|————————-|———————–|
|
| W +H. Q
|————————-|———————–|
|————————-|———————–|
|————————-|———————–|
|—9———————|-(9)—————9—|
|—7———————|-(7)—————7—|
|————————-|———————–|

W H. E E
|-13——–|-14————–|
|———–|—————–|
|———–|———-14-

To play the most songs, including Pilgrim by Arch Enemy by ukulele, the most important basic ukulele chords to learn are C chord, D chord, G chord, and Em chord.
These set you up to play a ton of songs, and each of them is easy to master.

Gravatar Image
Like to play Ukulele and Sudoku Game

Leave a Reply

Your email address will not be published. Required fields are marked *