No Reason by Sum 41 Ukulele Chords

Posted on

If you are searching for No Reason ukulele chords, you already come to the best site.
You can play versatile instrument No Reason using ukulele or guitar.
This song by Sum 41 can also be played by that instruments.
=

No Reason chords has rhythm and included in Chuck (2004) album.
You can also find other musical style, including jazz ukulele chords, country music ukulele chords, pop ukulele chords, world music ukulele chords, and rock ukulele chords here.

No Reason by Sum 41 Ukulele Chords


Chuck
2004 Island Records
Submitted by: jeremyunderground41@yahoo.com

Key: F#

Tuning: Standard EADGBe

Chords used:
Ebm – x68876
B – x24442
C# [-]- x46664
Bbm – x13321
C#/F[/ch] – 143xxx
[-]

Intro:

Deryck Speaks:
All of us believe that
this is not up to you
The fact of the matter
is really it’s up to me
Hey, Hey, Hey
Hey, Hey, Hey


Ebm--B-F#-Ebm--Bbm-C# x2

Let’s go !

Dave: on “Hey”


e|--------------|---|---|
B|--------------|---|---|
G|--------------|-4-|---|
D|-----4--4p3---|-4-|-4-|
A|-6-6--------4-|-2-|-4-|
E|--------------|---|-2-|

x3


e|--------------|---|---|
B|--------------|---|---|
G|--------------|-3-|-6-|
D|-----4--4p3---|-3-|-6-|
A|-6-6--------4-|-1-|-4-|
E|--------------|---|---|

x3

Verse 1:
Ebm(All the Way)
How can we fake this anymore (anymore)
We turn our backs away and choose
to just ignore (choose to just ignore)
(Some say) Some say it’s ignorance
It makes me feel some innocence
(Some say) It takes away a
part of me But I won’t let go

Dave: While doing Verses “Some say it’s ignorance”


e|----1--2--4--6--4--2--4-|
B|-4----------------------|
G|------------------------|
D|------------------------| x2
A|------------------------|
E|------------------------|

Cone: While Doing Verses


G|--------------------------------|
D|------------------------4-3-----|
A|-6-6-6--2-2-1-1--6-6-6------4-4-| x8
E|--------------------------------|

Chorus:
So why can’t you see it?s
not the way (not the way)
When we all fall down
it will be too late
Why is there no reason we
can’t change (no reason)
When we all fall down who
will take the blame

Post Chorus:
What will it take

Dave: While doing Post Chorus


e|---------------------------------|
B|---------------------------------|
G|---------------------------------|
D|-----------3-----4---------------|
A|-6-6-6-6-6---6-6---6-6-----4-----|
E|-----------------------1h2---1h2-|

Verse 2:
Ebm(all the way)
If nothing could ever be
this real (be this real)
A life unsatisfied that I
could never feel (could never feel)
(Some say) This future’s not so bright
Some can’t make the sacrifice
(Some say) It’s much more
than just black and white
And I won’t follow

(Repeat Chorus)

Bridge:
Times like these
I’ve come to see how
Ebm C#/F[/ch] F# G#m
Eve-ry—thing but
C#/F[/ch] G#m Bbm C#
time is run-ning out

Hey, Hey, Hey
Hey, Hey, Hey

Dave: on “Hey”


e|--------------|---|---|
B|--------------|---|---|
G|--------------|-4-|---|
D|-----4--4p3---|-4-|-4-|
A|-6-6--------4-|-2-|-4-|
E|--------------|---|-2-|

x3


e|--------------|---|---|
B|--------------|---|---|
G|--------------|-3-|-6-|
D|-----4--4p3---|-3-|-6-|
A|-6-6--------4-|-1-|-4-|
E|--------------|---|---|

x3

Verse 3:
All of us be-lieve
in what we need
What we have’s
what we don’t see

(Repeat Chorus)

Outro: While singing Chorus
So how long has this gone on
I don’t see this ending
It’s too late we can’t change
What has now begun
We act like it’s not right
Why are we pretending
We’ve been wrong for so long
C# Ebm Ebm(hold)
We’ve known this all along

To play the this songs, including No Reason by Sum 41 by ukulele, the most important basic ukulele chords to learn are C chord, D chord, G chord, and Em chord.
These set you up to play a a lot of songs, and each of them is easy to learn.

Gravatar Image
Like to play Ukulele and Sudoku Game

Leave a Reply

Your email address will not be published. Required fields are marked *