Mama Kin by Aerosmith Ukulele Chords

Posted on

If you are looking for Mama Kin ukulele chords, you have visit to the best place.
You can play versatile instrument Mama Kin using ukulele or guitar.
This song by Aerosmith can also be played by that instruments.
=

Mama Kin chords has rhythm and included in Aerosmith (1973) album.
You can also get another musical style, including jazz ukulele chords, country music ukulele chords, pop ukulele chords, world music ukulele chords, and rock ukulele chords here.

Mama Kin by Aerosmith Ukulele Chords


As recorded by Aerosmith
(From the 1973 Album AEROSMITH)

Transcribed by tonedeafidiot

Words and Music by Steve Tyler

7 9 x x x x

0 7 9 x x x
E5(type 2)
x 7 9 x x x

Gtr I (E A D G B E) – ‘Joe Perry’
Gtr II (E A D G B E) – ‘Brad Whitford’
Gtr III (E A D G B E) – ‘Joe Perry Dub w/ Slide’

Intro
Moderately Fast Q156
[4/4] Gtr I


PM------------|

Q E E E E E E +E E E E E E E E +E E E E E E E E E E E E E E E E


|----------------|-------------------|-------------------|------------------|
|----------------|-------------------|-------------------|------------------|
|-9--9-----9---4-|-(4)---4-----4---2-|-(2)---0---2---2---|------------------|
|-9--9---7-9---4-|-(4)-4-4---2-4-0-2-|-(2)-2-0-2-2p0-2---|------------------|
|-7--7---7-7---2-|-(2)-2-2---2-2-0-0-|-(0)-0---0-----0-2-|-x-2-4---5-2-4----|
|----------------|-------------------|-----------------0-|-x-0-0-0-0-0-0-0--|

Q E E E Q E E E E E E E E E


|-----------------|--------------------|
|-----------------|--------------------|
|-9--9-------9S4-|--4-----4-----4---2-|
|-9--9----7--9S4-|--4---4-4---2-4-0-2-|
|-7--7----7--7S2-|--2---2-2---2-2-0-0-|
|-----------------|--------------------|

|
| Gtr II
| H +E Q E +H.. E


|-----------------|--------------------|
|-----------------|--------------------|
|-9------(9)----4-|-(4)----------------|
|-9------(9)----4-|-(4)--------------2-|
|-7------(7)----2-|-(2)--------------0-|
|-----------------|--------------------|
PM PM-------------|

[+E]


|--------------------|--------------------|
|--------------------|--------------------|
|-(2)--------2-------|--------------------|
|-(2)--2-0---2-0-2---|--------------------|
|-(0)--0-0-0-0-0-0-2-|--2--2-4-2-5---4----|
|------------------0-|--0--0-0-0-0-0-0-0--|

|
| +H.. E +E E E E E E E E


|--------------------|--------------------|
|--------------------|--------------------|
|--------------------|--------------------|
|-(2)----------------|--------------------|
|-(0)--------------2-|-(2)-2-4p2-5p2-4----|
|------------------0-|-(0)-0-0---0---0----|

PM| PM
Q E E E E E E +E E E E E E E E +E E E E E E E E E E E E E E E S S


|----------------|-------------------|-------------------|---------------------|
|----------------|-------------------|-------------------|---------------------|
|-9--9-----9---4-|-(4)---4-------0-2-|-(2)---------------|-----------------x-x-|
|-9--9---7-9S4-4-|-(4)-4-4---2-4-0-2-|-(2)-2-0-2-2-0-2---|-----------------x-x-|
|-7--7-7-7-7S0-2-|-(2)-2-2-2-2-2---0-|-(0)-0-0-0-0-0-0-2-|--x--2-4-2-5-2-4-x-x-|
|----------------|-------------------|-----------------0-|--x--0-0-0-0-0-0-----|

|
| Q E E E E E E +E E E E E E E E +E E E E E E E E +E E E E E E E E


|----------------|-------------------|-------------------|---------------------|
|----------------|-------------------|-------------------|---------------------|
|----------------|-------------------|-------------------|---------------------|
|-9--9---9-9---4-|-(4)-4-4---4-4---2-|-(2)-2-4p2-5---4---|---------------------|
|-7--7---7-7---2-|-(2)-2-2---2-2---0-|-(0)-0-0---0---0-2-|-(2)-2-4p2-5---4-----|
|----------------|-------------------|-----------------0-|-(0)-0-0---0---0-----|

PM PM PM
Q E E E E E E +E E E E E E E E +E E E E E E E E


|----------------|-------------------|-------------------|
|----------------|-------------------|-------------------|
|-9--9---------4-|-(4)---------------|-------------------|
|-9--9---7-9S4-4-|-(4)---4---2-4-0-2-|-(2)-2-0-2-2-0-2---|
|-7--7-7-7-7S0-2-|-(2)-2-2---2-2-0-0-|-(0)-0-0-0-0-0-0-2-|
|----------------|-------------------|-----------------0-|

|
| Q E E E E E E +E E E E E E E E +E E E E E E E E


|----------------|-------------------|-------------------|
|----------------|-------------------|-------------------|
|----------------|-------------------|-------------------|
|-9--9---9-9---4-|-(4)-4-4---4-4---2-|-(2)-2-4p2-5---4---|
|-7--7---7-7---2-|-(2)-2-2---2-2---0-|-(0)-0-0---0---0-2-|
|----------------|-------------------|-----------------0-|
PM--------------------------------------------------|

E E E S S E E E E E S S S S S S S S S S S S S S


|---------------------|-------------------------------------|
|---------------------|-------------------------------------|
|---------------------|-------------------------------------|
|---------------------|-------------------------------------|
|--x--2-4-x-x-5-x-4-2-|--2----------------------------------|
|--x--0-0-0-0-0-0-0-0-|--0--2-2s3s4s5s6s7s8s9s10s11s12-12---|

|
| +E E E E E E E E +E E E E E E E E


|---------------------|-------------------------------------|
|---------------------|-------------------------------------|
|---------------------|-------------------------------------|
|---------------------|-------------------------------------|
|-(2)-2-4p2---5---4-2-|-(2)-2---4-------5---------4p0---|
|-(0)-0-0-----0---0-0-|-(0)-0---0-------0---------0---------|

[+E] [+E]


|---14b15(14)r(14)-------------|
|--------------------------12p11-|
|--------------------12p11-------|
|--------------------------------|
|--------------------------------|
|--------------------------------|

|
| E E E E E E E E


|--------------------------------|
|--------------------------------|
|--------------------------------|
|-2--2-------4--------5p2--4----|
|-0--0-------0--------0-----0--2-|
|------------------------------0-|

E E +E E +E E E E E E E S S a +E. S a +E +E


|----------------------------------|----------------------------------------------|
|----------------------------------|-------12-----14b15-(14)-----14b15(14)r(14)p|
|-14p12-(12)b12.5-----------12----|-14-------x-----------------------------------|
|------------------14-(14)14----14-|----14------0---------------------------------|
|----------------------------------|----------------------------------------------|
|----------------------------------|----------------------------------------------|

|
| +E E E E E E E E E E E E E E E E


|----------------------------------|----------------------------------------------|
|----------------------------------|----------------------------------------------|
|----------------------------------|----------------------------------------------|
|----------------------------------|--2--2--4p2-----------5---------------4-------|
|-(2)--2---4p2---5p2--4----|--0--0--0-------------0---------------0----2--|
|-(0)--0---0------------0-----0----|-------------------------------------------0--|

E S S S S S S S S S S S S S S


|----------------------------------------------|
|-12----14------14-------14-------14-------14--|
|----------x-------14-------14-------14--------|
|----14------14-------14-------14-------14-----|
|----------------------------------------------|
|----------------------------------------------|

|
| E E E E E E E E


|----------------------------------------------|
|----------------------------------------------|
|----------------------------------------------|
|----------------------------------------------|
|-----2----4p2-----5-----------4-----2-----|
|-----0----0-----------0-----------0-----0-----|

~~
S S S S S S S S E Q E


|-------------------------------------|
|--------14-------14-------14-12------|
|-12--------12-------12------------12-|
|-----14-------14-------14------------|
|-------------------------------------|
|-------------------------------------|

|
| +E E E E E E E E


|-------------------------------------|
|-------------------------------------|
|-------------------------------------|
|-------------------------------------|
|-(2)-----2-----4-----------5--x-4p0-|
|-(0)-----0-----0-----------0--0-0----|

a +Q +E E E E E E E E E E +E Q E


|-14b15(14)r(14)p12-------------|-----------------------------|
|-----------------------15p14p12----|-----------12-(12)-12--------|
|--------------------------------12p|11---------------------12s|
|-----------------------------------|-----14p12-------------------|
|-----------------------------------|-----------------------------|
|-----------------------------------|-----------------------------|

|
| E E E E E E E E +E E E E E E E E


|-----------------------------------|-----------------------------|
|-----------------------------------|-----------------------------|
|-----------------------------------|-----------------------------|
|----------2--2---4------5--x--4----|-----------------------------|
|----------0--0---0------0--0--0--2-|-(2)--2--4------5-----4--x---|
|---------------------------------0-|-(0)--0--0------0-----0--0---|

Q a +E +E E E E E Q. S S S S S S Q


|-----4b5(4)r(4)p2-------|------------------------|
|--------------------4p2---|------------------------|
|-2----------------------2p|1------1h2p1h2p1h2p1/--|
|--------------------------|------------------------|
|--------------------------|------------------------|
|--------------------------|------------------------|

|
| E E E E E E E E E E E E E E Q


|--------------------------|------------------------|
|--------------------------|------------------------|
|--------------------------|------------------------|
|--------------------------|------------------------|
|-4-4-------4---4--4-4-4-4-|-4--4-4-4---4---4---4---|
|-2-2-------2---2--2-2-2-2-|-2--2-2-2---2---2---2---|

E E a +Q E Q E


|---7-9b10-(9)------------------|
|-----------------7-------------|
|-------------------7----9b9.5--|
|-------------------------------|
|-------------------------------|
|-------------------------------|

|
| E E E E E E E E


|-------------------------------|
|-------------------------------|
|-------------------------------|
|-------------------------------|
|-9-9------11----12---11-9------|
|-7-7-------7-----7----7-7------|

E a +E E a +E +Q E S S


|------------------------------------------|
|-------------------------------------7h10p|
|-----9b10-(9)----9b9.5(9)r(9)p7------|
|------------------------------------------|
|------------------------------------------|
|------------------------------------------|

|
| +E E E E E E E E


|------------------------------------------|
|------------------------------------------|
|------------------------------------------|
|------------------------------------------|
|-(9)-------9--11---------9--12--x-11------|
|-(7)-------7---7---------7---7--7--7p0----|

E E E E a +E S S E E +E E E E +Q. +e


|------------------------------|----------------------------|
|-7---7------------------------|----------------------------|
|---9---7-9b10-(9)-x-x-x-9b9.5-|-(9)-x---9-9b11(9)r(9)--|
|------------------------------|----------------------------|
|------------------------------|----------------------------|
|------------------------------|----------------------------|

|
| E E E E E E E E E H..


|------------------------------|----------------------------|
|------------------------------|----------------------------|
|------------------------------|----------------------------|
|------------------------------|----------------------------|
|-5-5-6-6-------7--7---8-8-----|--9-------------------------|
|-3-3-4-4-------5--5---6-6-----|--7-------------------------|
PM PM PM--------| PM--------|

Q E E E E E E +E E E E E E E E +E E E E E E E E E E E E E E E E


|----------------|-------------------|-------------------|------------------|
|----------------|-------------------|-------------------|------------------|
|-9--9---7-9---4-|-(4)---4---------2-|-(2)-2-------------|------------------|
|-9--9-7-7-9S4-4-|-(4)---4---2-4---2-|-(2)-2-0-2-2-0-2---|-------------4s9--|
|-7--7-7-7-7---2-|-(2)-2-2-2-2-2-0-0-|-(0)-4-0-0-0-0-0-2-|-2-2-4-2-5-2-2s7--|
|----------------|-------------------|-----------------0-|-0-0-0-0-0-0-0----|

PM PM
Q E E E E E E +E E E E E E E E


|------------------|--------------------|
|------------------|--------------------|
|-9--9----7--9-----|--------------------|
|-9--9-7--7--9S4-4-|-(4)----4---2-4---2-|
|-7--7-7--7--7---2-|-(2)--2-2-2-2-2-0-0-|
|------------------|--------------------|

|
| Gtr II
| H +E Q E +H.. E


|------------------|--------------------|
|------------------|--------------------|
|-9------(9)-----4-|-(4)--------------2-|
|-9------(9)-----4-|-(4)--------------2-|
|-7------(7)-----2-|-(2)--------------0-|
|------------------|--------------------|
PM--------| PM---------|

[+E]


|-------------------|--------------------|
|-------------------|--------------------|
|-------------------|--------------------|
|-(2)-2-0-2-2---2---|-----------------2--|
|-(0)-4-0-0-0-0-0-2-|--2--2-4-2-5-2-x-2--|
|-----------------0-|--0--0-0-0-0-0-x----|

|
| +Q E E E E E E +E E E E E E E E


|-------------------|--------------------|
|-------------------|--------------------|
|-(2)---------------|--------------------|
|-(2)---4p2-5---4---|--------------------|
|-(0)---0---0---0-2-|-(2)-2-4---5---4-2--|
|-----------------0-|-(0)-0-0---0---0-0--|

~~
+Q E +E E Q. E +E E E +E E E E


|------------------------|--------------------------|
|------------------------|--------------------------|
|------------------------|--------------------------|
|-(2)---4b5-(4)-x-2------|--4b5-(4)---4b5-(4)---4---|
|-(2)-----------x--------|--------------------------|
|------------------------|--------------------------|

|
| PM
| +E E E E E E E E +E E E E E E E E


|------------------------|--------------------------|
|------------------------|--------------------------|
|------------------------|--------------------------|
|------------------------|--------------------------|
|-(2)-2-4-------5----4-2-|-(2)---2--4------5----4-2-|
|-(0)-0-0-------0----0-0-|-(0)---0--0------0----0-0-|

E E E E E E Q


|-----------------------------||
|-----------------------------||
|-----------------------------||
|----------4/--||
|-----------------------------||
|-----------------------------||

|
| PM
| +E E E E E E E E


|-----------------------------||
|-----------------------------||
|-----------------------------||
|-----------------------------||
|-(2)--2---4-------5------4p2-||
|-(0)--0---0-------0------0---||

Verse


PM PM PM PM--| PM-----------|

Q E E E E E E +E E E E E E E E +E E E E E E E E


|-------------------|-------------------|--------------------|
|-------------------|-------------------|--------------------|
|-9-----9---------4-|-(4)---4-----------|--------------------|
|-9-----9---7-9S4-4-|-(4)---4---2-4---2-|-(2)-2-0-2-2--0-2---|
|-7-----7---7-7-0-2-|-(2)-2-2---2-2-0-0-|-(0)-0-0-0-0--0-0-2-|
|-------------------|-------------------|------------------0-|

|
| E H.. W H Q. E


|-------------------|-------------------|--------------------|
|-------------------|-------------------|--------------------|
|-------------------|-------------------|--------------------|
|-------------------|-------------------|--------------------|
|-2-----------------|-------------------|------------------2-|
|-0-----------------|-------------------|------------------0-|
PM------| PM PM

E E E E E E E E +E E E E E E Q Q E E E E E E


|-----------------|-------------------|-------------------|
|-----------------|-------------------|-------------------|
|-----------------|-------------------|-9-----9-----9---4-|
|-----------------|-------------------|-9-----9-----9Sx-4-|
|-x-2-4-2-5---4-2-|-(2)-2-4p2-5p2-4/--|-7-----7---7-7S0-2-|
|-x-0-0-0-0-0-0-0-|-(0)-0-0---0---0---|-------------------|

|
| E E E E E E E E +E E E E E E E E E H..


|-----------------|-------------------|-------------------|
|-----------------|-------------------|-------------------|
|-----------------|-------------------|-------------------|
|-----------------|-------------------|-------------------|
|---2-4p2-5---4-2-|-(2)-2-4---5p2-4p2-|-2-----------------|
|---0-0---0---0-0-|-(0)-0-0---0---0---|-0-----------------|
PM PM PM---------| PM----|

[+E] [+E] [+E]


|-------------------|--------------------|-------------------|
|-------------------|--------------------|-------------------|
|-(4)---4p2---4---2-|-(2)---0------------|-------------------|
|-(4)-4-4---2-4---2-|-(2)-2-0-2-2--0-2---|-----------------2-|
|-(2)-2-2---2-2---0-|-(0)-0---0-0--0-0-2-|-(2)---4---5p2h4-2-|
|-------------------|------------------0-|-(0)-0-0-0-0-------|

|
| W H Q. E +E E E E E E E E


|-------------------|--------------------|-------------------|
|-------------------|--------------------|-------------------|
|-------------------|--------------------|-------------------|
|-------------------|--------------------|-------------------|
|-------------------|------------------2-|-(2)-2-4---5---4-2-|
|-------------------|------------------0-|-(0)-0-0---0---0-0-|
PM------| PM PM PM

+Q E E E E E E Q E E E E E E +E E E E E E E E


|-------------------|-----------------|-------------------|
|-------------------|-----------------|-------------------|
|-------------------|-----9-----9---4-|-(4)---4-----4---2-|
|-(2)-----------4s9-|-9---9---7-9S4-4-|-(4)-4-4---2-4---2-|
|-(2)---4---5---2---|-7---7---7-7-0-2-|-(2)-2-2---2-2p0-0-|
|-------0-0-0-0-0---|-----------------|-------------------|

|
| +E E E E E E E E E H Q. W


|-------------------|-----------------|-------------------|
|-------------------|-----------------|-------------------|
|-------------------|-----------------|-------------------|
|-------------------|-----------------|-------------------|
|-(2)-2-4p2-5---4p2-|-2---------------|-------------------|
|-(0)-0-0---0---0---|-0---------------|-------------------|
PM| PM--------------| PM--------|

+E E E E E E E E E E E E E E E E E E E E E E Q


|-------------------|-----------------|--------------------|
|-------------------|-----------------|--------------------|
|-(2)-2-0---2p0-2---|-----------------|--------------------|
|-(2)-2-0-2-2p0-2---|-----------------|--------------------|
|-(0)-----0-0---0-2-|-x-2-4-2-5-2-4-2-|-----2-4p2-5-2-4/---|
|-----------------0-|-x-0-0-0-0-0-0-0-|-----0-0---0-0-0----|

|
| H Q. E E E E E E E E E +E E E E E E E E


|-------------------|-----------------|--------------------|
|-------------------|-----------------|--------------------|
|-------------------|-----------------|--------------------|
|-------------------|---------------2-|-(2)-2--------------|
|-----------------2-|---2-4p2-5---4-2-|-(2)-2-4---5---4----|
|-----------------0-|---0-0---0---0-0-|-(0)-0-0---0---0----|

PM PM PM
Q E E E E E E +E E E E E E E E +E E E E E E E E


|-----------------|-------------------|--------------------|
|-----------------|-------------------|--------------------|
|-9---9-----9---4-|-(4)---4-----4---2-|-(2)---0---2--0-----|
|-9---9---7-9s4-4-|-(4)-4-4---2-4-0-2-|-(2)-2-0-2-2--0-2---|
|-7---7p0-7-7---2-|-(2)-2-2---2-2-0-0-|-(0)-0---0-0----0-2-|
|-----------------|-------------------|------------------0-|

|
| E H Q. W H Q. E


|-----------------|-------------------|--------------------|
|-----------------|-------------------|--------------------|
|-----------------|-------------------|--------------------|
|-----------------|-------------------|--------------------|
|-2---------------|-------------------|------------------2-|
|-0---------------|-------------------|------------------0-|

Pre-Chorus


PM-------------------------------------------------|

[+E]


|-------------------|-------------------||-----------------|
|-------------------|-------------------||-----------------|
|-------------------|-------------------||-----------------|
|-------------------|-------------------||-2-2-4-x-5-x-4---|
|-(2)-2-4-2-5-2-4-2-|--x--2-4-2-5-x-4-2-||-0-0-0-0-0-0-0-2-|
|-(0)-0-0-0-0-0-0-0-|--x--0-0-0-0-0-0-0-||---------------0-|

|
| +E E E E E E E E +E E E E E E E E E E E E E E E E


|-------------------|-------------------||-----------------|
|-------------------|-------------------||-----------------|
|-------------------|-------------------||-----------------|
|-------------------|-------------------||-2-2-4---5---4---|
|-(2)-2-4p2-5---4-2-|-(2)-2-4---5---4p0-||-0-0-0---0---0-2-|
|-(0)-0-0---0---0-0-|-(0)-0-0---0---0---||---------------0-|
PM---------------------------------------------------------|


|-------------------|-----------------|-------------------------|
|-------------------|-----------------|-------------------------|
|-------------------|-----------------|-------------------------|
|-------------------|-2-2-4-x-5-2-4---|-------------------------|
|--2--2-4-2-5-x-4-0-|-0-0-0-0-0-0-0-2-|--2--2-4-2-5-x------4--2-|
|--0--0-0-0-0-0-0-0-|---------------0-|--0--0-0-0-0-0------0--0-|

|
| ~~~~~~~~
| +E E E E E E E E E E E E E E E E +H. a +E E


|-------------------|-----------------|-------------------------|
|-------------------|-----------------|-------------------------|
|-------------------|-----------------|-------------------------|
|-------------------|-2-2-4p2-5---4---|-------------------------|
|-(2)-2-4---5---4p0-|-0-0-0---0---0---|-------------------------|
|-(0)-0-0---0---0---|---------------3-|-(3)-----------3b4-(3)p0-|
PM-------------| PM----------| PM--------|

[+E]


|---------------------|-----------------|-------------------|
|---------------------|-----------------|-------------------|
|---------------------|-----------------|-------------------|
|---------------------|-2-2-4-x-5-2-4---|-------------------|
|--2--2-4-2--5--2-4-0-|-0-0-0-0-0-0-0-2-|-(2)-2-4-x-5-2-4-0-|
|--0--0-0-0--0--0-0---|---------------0-|-(0)-0-0-0-0-0-0-0-|

|
| ~~~~~~~
| +Q E E +E E E E E E E E E E E E +E E E E E E E E


|---------------------|-----------------|-------------------|
|---------------------|-----------------|-------------------|
|---------------------|-----------------|-------------------|
|---------------------|-2-2-4p2-5---4---|-------------------|
|---------------------|-0-0-0---0---0-2-|-(2)-2-4p2-5---4p0-|
|-(0)---0-3-(3)p0-0-0-|---------------0-|-(0)-0-0---0---0---|

E E E E E E E E E E E E E E E S S H +E E E E


|-----------------|-------------------|---------------------|
|-----------------|-------------------|---------------------|
|-----------------|-------------------|---------------------|
|---4---4---4---4-|---4---4---4---9-9-|-9--------(9)-9--9-9-|
|---4---4---4---4-|---4---4---4---9-9-|-9--------(9)-9--9-9-|
|---2---2---2---2-|---2---2---2---7-7-|-7--------(7)-7--7-7-|

|
| E E E E E E E E E E E E E E E E E E E E E E E E


|-----------------|-------------------|---------------------|
|-----------------|-------------------|---------------------|
|-----------------|-------------------|---------------------|
|-----------------|-------------------|---------------------|
|-4-4-4-4-4-4-4-4-|-4-4-4-4-4-4-4-4---|-9-9-11---12----11-9-|
|-2-2-2-2-2-2-2-2-|-2-2-2-2-2-2-2-2---|-7-7--7----7-----7-7-|

T
+Q. E +Q E E E E E E E E E E Q. Q E Q


|-----------------------|-----------------|-----------------||
|-----------------------|-----------------|-----------------||
|-----------------------|-----------------|-----------------||
|-(9)------9------------|-5-5-6-6-7-7-8-8-|-9-------/x-----||
|-(9)------9------------|-5-5-6-6-7-7-8-8-|-9-------/x-----||
|-(7)------7-(7)p0h3-|-3-3-4-4-5-5-6-6-|-9-------/x-----||

|
| +E E E E E E E E E E E E E E E E E H Q.


|-----------------------|-----------------|-----------------||
|-----------------------|-----------------|-----------------||
|-----------------------|-----------------|-----------------||
|-----------------------|-----------------|-9---------------||
|-(9)-9-11p9-12----11---|-5-5-6-6-7-7-8-8-|-9---------------||
|-(7)-7--7----7-----7p0-|-3-3-4-4-5-5-6-6-|-9---------------||

Verse
PM PM PM PM| PM
Q E E E E E E +E E E E E E E E +E E E E E E E E


|-----------------|-------------------|-------------------|
|-----------------|-------------------|-------------------|
|-----9-----9---4-|-(4)---4-----4---2-|-(2)-2-0---2p0-2---|
|-9---9---7-9S4-4-|-(4)-4-4---2-4---2-|-(2)-2-0-2-2p0-2---|
|-7---7---7-7-0-2-|-(2)-2-2---2-2p0-0-|-(0)-----0-0---0-2-|
|-----------------|-------------------|-----------------0-|

|
| E H Q. W H Q. E


|-----------------|-------------------|-------------------|
|-----------------|-------------------|-------------------|
|-----------------|-------------------|-------------------|
|-----------------|-------------------|-------------------|
|-2---------------|-------------------|-----------------2-|
|-0---------------|-------------------|-----------------0-|
PM----------| PM--------| PM

E E E E E E E E E E E E E E Q Q E E E E E E


|-----------------|--------------------|-----------------|
|-----------------|--------------------|-----------------|
|-----------------|--------------------|-9---9-----9---4-|
|-----------------|--------------------|-9---9---7-9s4-4-|
|-x-2-4-2-5-2-4-2-|-----2-4p2-5-2-4/---|-7---7p0-7-7---2-|
|-x-0-0-0-0-0-0-0-|-----0-0---0-0-0----|-----------------|

|
| E E E E E E E E +E E E E E E E E E H Q.


|-----------------|--------------------|-----------------|
|-----------------|--------------------|-----------------|
|-----------------|--------------------|-----------------|
|---------------2-|-(2)-2--------------|-----------------|
|---2-4p2-5---4-2-|-(2)-2-4---5---4----|-2---------------|
|---0-0---0---0-0-|-(0)-0-0---0---0----|-0---------------|
PM PM PM----------|

[+E] [+E] [+E]


|-------------------|--------------------|-------------------|
|-------------------|--------------------|-------------------|
|-(4)---4-----4---2-|-(2)---0---2--0-----|-------------------|
|-(4)-4-4---2-4-0-2-|-(2)-2-0-2-2--0-2---|-------------------|
|-(2)-2-2---2-2-0-0-|-(0)-0---0-0----0-2-|-(2)-2-4-2-5-2-4-2-|
|-------------------|------------------0-|-(0)-0-0-0-0-0-0-0-|

|
| W H Q. E +E E E E E E E E


|-------------------|--------------------|-------------------|
|-------------------|--------------------|-------------------|
|-------------------|--------------------|-------------------|
|-------------------|--------------------|-------------------|
|-------------------|------------------2-|-(2)-2-4p2-5---4-2-|
|-------------------|------------------0-|-(0)-0-0---0---0-0-|

Pre-Chorus


PM--------------------------------------------------------------------|


|-------------------||-----------------|-----------------|------------------|
|-------------------||-----------------|-----------------|------------------|
|-------------------||-----------------|-----------------|------------------|
|-------------------||-2-2-4-x-5-x-4---|-----------------|-2-2-4-x-5-2-4----|
|--x--2-4-2-5-x-4-0-||-0-0-0-0-0-0-0-2-|-2-2-4-2-5-x-4-0-|-0-0-0-0-0-0-0-2--|
|--x--0-0-0-0-0-0-0-||---------------0-|-0-0-0-0-0-0-0-0-|---------------0--|

|
| ~
| +E E E E E E E E E E E E E E E E E E E E E E E E E E E E E E E E


|-------------------||-----------------|-----------------|------------------|
|-------------------||-----------------|-----------------|------------------|
|-------------------||-----------------|-----------------|------------------|
|-------------------||-2-2-4p2-5---4---|-----------------|-2-2-4p2-5---4----|
|-(2)-2-4---5---4p0-||-0-0-0---0---0-2-|-2-2-4---5---4p0-|-0-0-0---0---0----|
|-(0)-0-0---0---0---||---------------0-|-0-0-0---0---0---|---------------3--|
PM---------------------------------------| PM----------|


|-------------------------|---------------------|-----------------|
|-------------------------|---------------------|-----------------|
|-------------------------|---------------------|-----------------|
|-------------------------|---------------------|-2-2-4-x-5-2-4---|
|--2--2-4-2-5-x------4--2-|--2--2-4-2--5--2-4-0-|-0-0-0-0-0-0-0-2-|
|--0--0-0-0-0-0------0--0-|--0--0-0-0--0--0-0---|---------------0-|

|
| ~~~ ~~~~~~~
| +H. a +E E +Q E E +E E E E E E E E E E E E


|-------------------------|---------------------|-----------------|
|-------------------------|---------------------|-----------------|
|-------------------------|---------------------|-----------------|
|-------------------------|---------------------|-2-2-4p2-5---4---|
|-------------------------|---------------------|-0-0-0---0---0-2-|
|-(3)-----------3b4-(3)p0-|-(0)---0-3-(3)p0-0-0-|---------------0-|
PM--------|

+E E E E E E E E E E E E E E E E E E E E E E E S S


|-------------------|-----------------|-------------------|
|-------------------|-----------------|-------------------|
|-------------------|-----------------|-------------------|
|-------------------|---4---4---4---4-|---4---4---4---9-9-|
|-(2)-2-4-x-5-2-4-0-|---4---4---4---4-|---4---4---4---9-9-|
|-(0)-0-0-0-0-0-0-0-|---2---2---2---2-|---2---2---2---7-7-|

|
| E E E E E E E E E E E E E E E E E E E E E E E E


|-------------------|-----------------|-------------------|
|-------------------|-----------------|-------------------|
|-------------------|-----------------|-------------------|
|-------------------|-----------------|-------------------|
|--2--2-4p2-5---4p0-|-4-4-4-4-4-4-4-4-|-4-4-4-4-4-4-4-4---|
|--0--0-0---0---0---|-2-2-2-2-2-2-2-2-|-2-2-2-2-2-2-2-2---|


[2/4] Gtr II
W W W Q Q
| |
[/][/]
Q Q E E E E +E E Q E E E E E E E E E E E E q q


|-----------7-7--7---|--------7---------7---|-----x-----------|-------||
|-----------7-7--7---|--------7-------------|-----x-----------|-------||
|--------------------|----------------------|-----x-----------|-------||
|-9----9-----------9-|-(9)----------------x-|-x-x---x-x-x-x-x-|-9--9--||
|-9----9-----------9-|-(9)-9-------9-9----x-|-x-x---x-x-x-x-x-|-9--9--||
|-7----7-----------7-|-(7)-7-------7-7----x-|-x-x---x-x-x-x-x-|-7--7--||

|
| E E E E E E E E +E E E E E E E E E E E E E E E E H


|--------------------|----------------------|-----------------|-------||
|--------------------|----------------------|-----------------|-------||
|--------------------|----------------------|-----------------|-------||
|--------------------|----------------------|-----------------|-------||
|-9-9-11---12---11-9-|-(9)-9-11p9-12---11---|-5-5-6-6-7-7-8-8-|-------||
|-7-7--7----7----7-7-|-(7)-7--7----7----7p0-|-3-3-4-4-5-5-6-6-|-------||

Chorus

[4/4] Q. E H W W W
|
[/]
Q. E H H q q Q. E H H q q


|-------------|------------|-------------|-------------|
|-------------|------------|-------------|-------------|
|-9----------|------------|-9----------|-------------|
|-9----------|------9--9--|-9----------|------9--9---|
|-7----------|------9--9--|-7----------|------9--9---|
|-------------|------7--7--|-------------|------7--7---|

Q. E H H q q Q H.


|-------------|------------|----------|
|-------------|------------|----------|
|-9----------|------------|-9--------|
|-9----------|------9--9--|-9--------|
|-7----------|------9--9--|-7--------|
|-------------|------7--7--|----------|

H q q Q E E +E E E E E E q q q


|------------|------------------|--------------|
|------------|------------------|--------------|
|------------|----x-9-(9)-9-9-x-|-7-x----------|
|------9-----|-9--x-7-(7)-7-7-x-|-5-x-7--------|
|------9--9--|-7--x-0-(0)-0-0-0-|-0-0-5--9--9--|
|------7--7--|------------------|--------7--7--|

|
| Gtr II
| H Q q Q E E +E Q E E E q q q


|------------|------------------|--------------|
|------------|------------------|--------------|
|------8--8--|-9----9-(9)-9---9-|-7-7----------|
|------9--9--|-9----7-(7)-7---7-|-5-5-7--------|
|------9--9--|-7p0-------------|-----5--9--9--|
|------7--7--|------------------|--------7--7--|

Q E E +E E E E E E q q q Q E E +E E E E


|------------------|--------------|------------------|
|------------------|--------------|------------------|
|----x-9-(9)-9-9-x-|-7-x----------|----x-9-(9)-9-9-x-|
|-9--x-7-(7)-7-7-x-|-5-x-7--------|-9--x-7-(7)-7-7-x-|
|-7--x-0-(0)-0-0-0-|-0-0-5--9--9--|-7--x-0-(0)-0-0-0-|
|------------------|--------7--7--|------------------|

|
| Q E E +E Q E E E q q q Q E E +E Q E


|------------------|--------------|------------------|
|------------------|--------------|------------------|
|-9----9-(9)-9---9-|-7-7----------|-9----9-(9)-9---9-|
|-9----7-(7)-7---7-|-5-5-7--------|-9----7-(7)-7---7-|
|-7p0-------------|-----5--9--9--|-7p0-------------|
|------------------|--------7--7--|------------------|

E E q q q Q E E +E E E E [2/4] q Q


|--------------|-------------------|---------|
|--------------|-------------------|---------|
|-7-x----------|-----x-9-(9)-9-9-x-|-7-------|
|-5-x-7--------|-9---x-7-(7)-7-7-x-|-5---7S|
|-0-0-5--9--9--|-7---x-0-(0)-0-0-0-|-0---5S|
|--------7--7--|-------------------|---------|

|
| E E q q q E E E E +E Q E E E E E


|--------------|-------------------|---------|
|--------------|-------------------|---------|
|-7-7----------|-9---0-9-(9)-9---9-|-7-x-----|
|-5-5-7--------|-9-9---7-(7)-7---7-|-5-x-7s5-|
|-----5--9--9--|-7-----------------|-----5s3-|
|--------7--7--|-------------------|---------|

[4/4] H.. E E E E E E E E E


|-------------------|-----------------|
|-------------------|-----------------|
|-------------------|-----------------|
|-5---------------5-|---5---5---5-5s4-|
|-3---------------3-|---3---3---3-3s2-|
|-------------------|-----------------|

|
| E E E E E E E E E E E E E E E E


|-------------------|-----------------|
|-------------------|-----------------|
|-------------------|-----------------|
|-5---5-7-x-5-5-7-7-|-5-5-7-x-5-5-7-x-|
|-3---3-3-3-3-3-3-3-|-3-3-3-3-3-3-3-3-|
|-------------------|-----------------|

H. E E +E Q E +Q Q


|-----------------|------------------------||
|-----------------|------------------------||
|-----------------|------------------------||
|-4-------------4-|-(4)-4---(4)-(4)---4----||
|-2p0-2-|-(2)-2----2--(2)---2----||
|-----------------|------------------------||

|
| E E E E E E E E E E E E E E E E


|-----------------|------------------------||
|-----------------|------------------------||
|-----------------|------------------------||
|-4-4-6-6-4-4-6-6-|--4--4-6--6---4--4-6----||
|-2-2-2-2-2-2-2-2-|--2--2-2--2---2--2-2-0--||
|---------0-------|------------------------||

+E Q E Q E E +E Q E Q E E E E E E +Q a Q


|-------------------|---------------------|---17---17-(17)---------------|
|-------------------|---------------------|---17---17-(17)---------17----|
|----------------/9-|-(9)-9------9------9-|-----------------16b18-(16)---|
|-(4)-2-----2-------|---------------------|------------------------------|
|-(2)-----0----0----|---------0-------0---|------------------------------|
|-------------------|---------------------|------------------------------|

|
| Q Q Q E E +E E E E +E E Q Q Q Q E E


|-------------------|---------------------|------------------------------|
|-------------------|---------------------|------------------------------|
|-------------------|---------------------|------------------------------|
|-----------2-----5-|-(5)---5-4-(4)---4---|-2-----------2--------------5-|
|--0--------0--0----|-----0---------0-----|-0-----------0-----------0----|
|-------------------|---------------------|------------------------------|

~~~~
E a Q a +E +E a E +E E


|------------------------------------------------------||
|-------------17--------------------------17--(17)----||
|-----16pb18-(16)---16-(16)-(16)-16pb18(16)-(16)----||
|------------------------------------------------------||
|------------------------------------------------------||
|------------------------------------------------------||

|
| +E E E E +H


|------------------------------------------------------||
|------------------------------------------------------||
|------------------------------------------------------||
|-(5)-------------5------4---(4)-----------------------||
|--------------0---------------------------------------||
|------------------------------------------------------||

Verse


PM PM PM PM| PM--------------|

Q E E E E E E +E E E E E E E E +E E E E E E E E E E E E E E E E


|-----------------|-------------------|-------------------|------------------|
|-----------------|-------------------|-------------------|------------------|
|-----9-----9---4-|-(4)---4-----4---2-|-(2)-2-0---2p0-2---|------------------|
|-9---9---7-9S4-4-|-(4)-4-4---2-4---2-|-(2)-2-0-2-2p0-2---|------------------|
|-7---7---7-7-0-2-|-(2)-2-2---2-2p0-0-|-(0)-----0-0---0-2-|-x-2-4-2-5-2-4-2--|
|-----------------|-------------------|-----------------0-|-x-0-0-0-0-0-0-0--|

|
| E H Q. W H Q. E E E E E E E E E


|-----------------|-------------------|-------------------|------------------|
|-----------------|-------------------|-------------------|------------------|
|-----------------|-------------------|-------------------|------------------|
|-----------------|-------------------|-------------------|---------------2--|
|-2---------------|-------------------|-----------------2-|---2-4p2-5---4-2--|
|-0---------------|-------------------|-----------------0-|---0-0---0---0-0--|
PM--------| PM

E E E E E E Q Q E E E E E E


|--------------------|-----------------|
|--------------------|-----------------|
|--------------------|-9---9-----9---4-|
|--------------------|-9---9---7-9s4-4-|
|-----2-4p2-5-2-4/---|-7---7p0-7-7---2-|
|-----0-0---0-0-0----|-----------------|

|
| +E E E E E E E E E H Q.


|--------------------|-----------------|
|--------------------|-----------------|
|--------------------|-----------------|
|-(2)-2--------------|-----------------|
|-(2)-2-4---5---4----|-2---------------|
|-(0)-0-0---0---0----|-0---------------|

PM PM
[+E] [+E]


|-------------------|---------------------|
|-------------------|---------------------|
|-(4)---4-----4---2-|-(2)---0---2--0------|
|-(4)-4-4---2-4-0-2-|-(2)-2-0-2-2--0-2----|
|-(2)-2-2---2-2-0-0-|-(0)-0---0-0----0-2--|
|-------------------|------------------0--|

|
| W H Q. E


|-------------------|---------------------|
|-------------------|---------------------|
|-------------------|---------------------|
|-------------------|---------------------|
|-------------------|------------------2--|
|-------------------|------------------0--|
PM----------------------------------

[+E]


|-------------------|-------------------||
|-------------------|-------------------||
|-------------------|-------------------||
|-------------------|-------------------||
|-(2)-2-4-2-5-2-4-2-|--x--2-4-2-5-x-4-0-||
|-(0)-0-0-0-0-0-0-0-|--x--0-0-0-0-0-0-0-||

|
| +E E E E E E E E +E E E E E E E E


|-------------------|-------------------||
|-------------------|-------------------||
|-------------------|-------------------||
|-------------------|-------------------||
|-(2)-2-4p2-5---4-2-|-(2)-2-4---5---4p0-||
|-(0)-0-0---0---0-0-|-(0)-0-0---0---0---||

Pre-Chorus


---------------------------------------------------|


|-----------------|-----------------|------------------|
|-----------------|-----------------|------------------|
|-----------------|-----------------|------------------|
|-2-2-4-x-5-x-4---|-----------------|-2-2-4-x-5-2-4----|
|-0-0-0-0-0-0-0-2-|-2-2-4-2-5-x-4-0-|-0-0-0-0-0-0-0-2--|
|---------------0-|-0-0-0-0-0-0-0-0-|---------------0--|

|
| ~
| E E E E E E E E E E E E E E E E E E E E E E E E


|-----------------|-----------------|------------------|
|-----------------|-----------------|------------------|
|-----------------|-----------------|------------------|
|-2-2-4p2-5---4---|-----------------|-2-2-4p2-5---4----|
|-0-0-0---0---0-2-|-2-2-4---5---4p0-|-0-0-0---0---0----|
|---------------0-|-0-0-0---0---0---|---------------3--|
PM-------------------------------------|


|-------------------------|-------------------|
|-------------------------|-------------------|
|-------------------------|-------------------|
|-------------------------|-------------------|
|--2--2-4-2-5-x------4--2-|--2--2-4-2-5-2-4-0-|
|--0--0-0-0-0-0------0--0-|--0--0-0-0-0-0-0---|

|
| ~~~
| +H. a +E E +E E E E E E E E


|-------------------------|-------------------|
|-------------------------|-------------------|
|-------------------------|-------------------|
|-------------------------|-------------------|
|-------------------------|-------------------|
|-(3)-----------3b4-(3)p0-|-(0)-0-2-2-3-3-4-4-|
PM----------| PM--------|


|-----------------|-----------------|
|-----------------|-----------------|
|-----------------|-----------------|
|-2-2-4-x-5-2-4---|-----------------|
|-0-0-0-0-0-0-0-2-|-2-2-4-x-5-2-4-0-|
|---------------0-|-0-0-0-0-0-0-0-0-|

|
| E E E E E E E E E E E E E E E E


|-----------------|-----------------|
|-----------------|-----------------|
|-----------------|-----------------|
|-2-2-4p2-5---4---|-----------------|
|-0-0-0---0---0-2-|-2-2-4p2-5---4p0-|
|---------------0-|-0-0-0---0---0---|

E E E E E E E E E E E E E E Q


|---2---2---2---2-|---2---2---2-----|
|---2---2---2---2-|---2---2---2-----|
|---3---3---3---3-|---3---3---3-----|
|-------4---4---4-|---4-------4-----|
|-----------------|-----------------|
|-----------------|-----------------|

|
| E E E E E E E E E E E E E E E E


|-----------------|-----------------|
|-----------------|-----------------|
|-----------------|-----------------|
|-----------------|-----------------|
|-4-4-4-4-4-4-4-4-|-4-4-4-4-4-4-4-4-|
|-2-2-2-2-2-2-2-2-|-2-2-2-2-2-2-2-2-|

Q Q H Q E Q. E E E E E E E E E E [2/4] q q


|-7----7---------------|--------7-----------x---|-----------------|---------||
|-7----7---------------|--------7-----------x---|---------5-x-----|---------||
|-8--------------------|--------x-----------x---|-4-x-5-x-6-x-7-x-|---------||
|-9--------------------|--------x-----------x---|-5-x-6-x-7-x-8-x-|-9--9----||
|----------------------|------------------------|-5-x-6-x-7-x-8-x-|-9--9----||
|----------------------|----------------------0-|-3-x-4-x-5-x-6-x-|-7--7----||

|
| E E E E E E E E +E E E E E E E E E E E E E E E E Q Q


|----------------------|------------------------|-----------------|---------||
|----------------------|------------------------|-----------------|---------||
|----------------------|------------------------|-----------------|---------||
|----------------------|------------------------|-----------------|---------||
|-9-9-11---12-----11-9-|-(9)-9-11p9--12----11---|-5-5-6-6-7-7-8-8-|-9--9---||
|-7-7--7----7------7-7-|-(7)-7--7-----7-----7p0-|-3-3-4-4-5-5-6-6-|-7--7---||

|
| Gtr III
| H E a Q E +Q Q Q. E W H


|-------------5s7----7-|-(7)--------------------|-----------------|---------||
|----------------------|--------7-----4---------|-----------------|---------||
|----------------------|--------------4---------|-----------------|---------||
|----------------------|--------------4---------|-----------------|---------||
|----------------------|------------------------|-----------------|---------||
|----------------------|------------------------|-----------------|---------||

Out-Chorus
[4/4] Q. E H H q q Q. E H


|-------------|------------|-------------|
|-------------|------------|-------------|
|-9----------|------------|-9----------|
|-9----------|------9--9--|-9----------|
|-7----------|------9--9--|-7----------|
|-------------|------7--7--|-------------|

H q q Q. E H H q q


|------------|-------------|------------|
|------------|-------------|------------|
|------------|-9----------|------------|
|------9--9--|-9----------|------9--9--|
|------9--9--|-7----------|------9--9--|
|------7--7--|-------------|------7--7--|

W H q q Q E E +E E E E


|-----------|------------|------------------|
|-----------|------------|------------------|
|-9--------|------------|----x-9-(9)-9-9-x-|
|-9--------|------9-----|-9--x-7-(7)-7-7-x-|
|-7--------|------9--9--|-7--x-0-(0)-0-0-0-|
|-----------|------7--7--|------------------|

|
| Gtr II
| W H Q q Q E E +E Q E


|-----------|------------|------------------|
|-----------|------------|------------------|
|-----

To play the most songs, including Mama Kin by Aerosmith by ukulele, the most crucial basic ukulele chords to learn are C chord, D chord, G chord, and Em chord.
These set you up to play a ton of songs, and each of them is easy to master.

Gravatar Image
Like to play Ukulele and Sudoku Game

Leave a Reply

Your email address will not be published. Required fields are marked *