Louise by Jett Rebel Ukulele Chords

Posted on

If you are looking for Louise ukulele chords, you’ve visit to the best place.
You can play versatile instrument Louise using ukulele or guitar.
This song by Jett Rebel can also be played by that instruments.
=

Louise chords has rhythm and included in Venus & Mars (2014) album.
You can also find another musical style, including jazz ukulele chords, country music ukulele chords, pop ukulele chords, world music ukulele chords, and rock ukulele chords here.

Louise by Jett Rebel Ukulele Chords


[D/E]


E|----------------
B|-(9)----7-------
G|-(9)----x----9--
D|-(9)----4----9--
A|-(7)----5----7--
E|--0-----0-------


E|-------------(7)---------(4)---
B|--9-----7-----7-----6-----5----
G|--9-----7-----7-----7-----6----
D|--9-----7-----6-----6-----6----
A|--------------7-----7----------
E|--9-----7-----------------5----

[D/E]

[Verse 1]

[D/E] Aaah we ever get it right
But when I get it right, I get it right
[D/E] Come a little closer please
I found myself begging on my knees

(For) Louise
Loui-i-ise
Louise O o o o-oh O o o o-oh

(2 x)

N.C.
Lover

[Verse 2]

I wasn’t born yesterday
[D/E] Tomorrow’s just another day
Can’t promise me fantasies
[D/E] I found myself begging on my knees Ey

[Verse 3]

Baby I don’t wanna fall
[D/E] I might end up in the hospital
Can’t shake the fantasies
N.C.
I found myself begging on my knees


(For) Louise
Loui-i-ise
Louise O o o o-oh O o o o-oh

(2 x)



:: main solo


E|--------------------------------|
B|--9--10-12-10-9-10--9--9--10-9--|
G|--------------------------------|
D|--6--7--9--7--6--7--6--6--7--6--|
A|--------------------------------|
E|--------------------------------|

repeat with some variations

:: overdub


E|--14-12-14---16-16-17-16-14-14-------14---|
B|-------------------------------17-17------|
G|------------------------------------------|
D|------------------------------------------|
A|------------------------------------------|
E|------------------------------------------|

repeat with some variations

I can’t take it
I can’t take it
I can’t take it no more
(3 x)

I can’t take it (4x)

[Chorus 2]

(single strum)
For Louise
Loui-i-ise
Louise O o o o-oh O o o o-oh

(For) Louise
Loui-i-ise
Louise O o o o-oh O o o o-oh

(2 x)

To play the most songs, including Louise by Jett Rebel by ukulele, the most important basic ukulele chords to learn are C chord, D chord, G chord, and Em chord.
These set you up to play a many of songs, and each of them is easy to master.

Gravatar Image
Like to play Ukulele and Sudoku Game

Leave a Reply

Your email address will not be published. Required fields are marked *