Little Girl From the Dryland by John Williamson Ukulele Chords

Posted on

If you are looking for Little Girl From the Dryland ukulele chords, you already come to the right place.
You can play versatile instrument Little Girl From the Dryland using ukulele or guitar.
This song by John Williamson can also be played by that instruments.
=

Little Girl From the Dryland chords has rhythm and included in Chandelier of Stars (2005) album.
You can also get other musical style, including jazz ukulele chords, country music ukulele chords, pop ukulele chords, world music ukulele chords, and rock ukulele chords here.

Little Girl From the Dryland by John Williamson Ukulele Chords


Little Girl From the Dryland
-John Williamson-

Hey guys this is my first published tab, but im sure its 99.9% correct.
This song is done in standard E with a capo on the first fret.
I’d love some feedback or corrections if needed, so feel free.
Its not a hard song so just have fun and enjoy.

Tuning: E (standard)
Capo 1st fret (everything is tabbed relative to the capo)

D Esus Esus Esus2


---3--- ------- ------- -------|
---o--- ------- ------- -------|
---2--- ---2--- ---2--- ---2---|
---2--- ---2--- ---2--- ---2---|
---0--- ------- ------- -------|
------- ------- ---3--- ---2---|


------- ---3--- -------|
---1--- ------- ---1---|
---2--- ------- -------|
---3--- ---2--- ---2---|
------- ---3--- ---3---|
------- ------- -------|

Intro

D D (played twice with the creaking in backround)


----------------3--------------------------------3--|
------------0---------------------------------0-----|
--------2---------------------------------2---------|
-----2--------------------------------2-------------|
--0--------------------------------0----------------|
----------------------------------------------------|

2nd half of intro
verse
Esus Esus


----------------------------------------------------------------------------------------|
----------0-----------------------0----------------------0-----------------------0------|
---2--------2-----2-------2--------2----2--------2--------2-----2------2---------2---2--|
------2--------2-------------2--------2--------------2--------2-------------2-------2---|
-0---------------------0----------------------------------------------------------------|
------------------------------------------------3----------------------3----------------|


-----------------------------------------------------------------------------------------|
----------0------------------------0-----------------------0--------------------0--------|
-----2------2----2---------2--------2----2--------2---------2----2-----2---------2----2--|
-------2------2---------------2--------2-------------2---------2-----------2---------2---|
--------------------------------------------------0--------------------0-----------------|
-2--------------------2------------------------------------------------------------------|

chorus
v downstroke
^ upstroke
strum chorus with a- v v ^ ^ v ^ pattern

|F |G |C |C
|v v ^ ^ v ^ |v v ^ ^ v ^ |v v ^ ^ v ^ |v v ^ ^ v ^ repeatx2

3rd time
strum half chorus then straight back into verse picking

|F |G | VERSE (Esus picking)
|v v ^ ^ v ^ |v v ^ ^ v ^ |

To play the most songs, including Little Girl From the Dryland by John Williamson by ukulele, the most crucial basic ukulele chords to learn are C chord, D chord, G chord, and Em chord.
These set you up to play a a lot of songs, and each of them is easy to master.

Gravatar Image
Like to play Ukulele and Sudoku Game

Leave a Reply

Your email address will not be published. Required fields are marked *