Joe’s Waltz by The Dodos Ukulele Chords

Posted on

If you are searching for Joe’s Waltz ukulele chords, you already come to the right site.
You can play versatile instrument Joe’s Waltz using ukulele or guitar.
This song by The Dodos can also be played by that instruments.
=

Joe’s Waltz chords has rhythm and included in Visiter (2008) album.
You can also find another musical style, including jazz ukulele chords, country music ukulele chords, pop ukulele chords, world music ukulele chords, and rock ukulele chords here.

Joe’s Waltz by The Dodos Ukulele Chords


Capo on the 5th

d: down strums

u: up strums

Intro:


e|--0---0-0-0-0-0---0-0-0-0-0---0-0-0-0-0---0-0-0-0----|
B|--0---0-0-0-0-0---0-0-0-0-0---0-0-0-0-0---0-0-0-0----|
G|--0---0-0-0-0-0---0-0-0-0-0---0-0-0-0-0---0-0-0-0----|
D|--1---1-1-1-1-2---2-2-2-2-0---0-0-0-0-0---0-0-0-0----|
A|--2---2-2-2-2-2---2-2-2-2-2---2-2-2-2-2---2-2-2-2----|
E|--0---0-0-0-0-0---0-0-0-0-3---3-3-3-3-3---3-3-3-3----|


e|--0---0-0-0-0-0---0-0-0-0-0---0-0-0-0-0---0-0-0-0----|
B|--0---0-0-0-0-0---0-0-0-0-0---0-0-0-0-0---0-0-0-0----|
G|--0---0-0-0-0-0---0-0-0-0-0---0-0-0-0-0---0-0-0-0----|
D|--1---1-1-1-1-2---2-2-2-2-0---0-0-0-0-0---0-0-0-0----|
A|--2---2-2-2-2-3---3-3-3-3-2---2-2-2-2-2---2-2-2-2----|
E|--0---0-0-0-0-0---0-0-0-0-3---3-3-3-3-3---3-3-3-3----|


Main Verse:

Joke about nothing and youll be forgiven


e|--0---0-0-0-0-0---0-0-0-0-0---0-0-0-0-0---0-0-0-0----|
B|--0---0-0-0-0-0---0-0-0-0-0---0-0-0-0-0---0-0-0-0----|
G|--0---0-0-0-0-0---0-0-0-0-0---0-0-0-0-0---0-0-0-0----|
D|--1---1-1-1-1-2---2-2-2-2-0---0-0-0-0-0---0-0-0-0----|
A|--2---2-2-2-2-2---2-2-2-2-2---2-2-2-2-2---2-2-2-2----|
E|--0---0-0-0-0-0---0-0-0-0-3---3-3-3-3-3---3-3-3-3----|


The laughs are all dying out one by one


e|--0---0-0-0-0-0---0-0-0-0-0---0-0-0-0-0---0-0-0-0----|
B|--0---0-0-0-0-0---0-0-0-0-0---0-0-0-0-0---0-0-0-0----|
G|--0---0-0-0-0-0---0-0-0-0-0---0-0-0-0-0---0-0-0-0----|
D|--1---1-1-1-1-2---2-2-2-2-0---0-0-0-0-0---0-0-0-0----|
A|--2---2-2-2-2-3---3-3-3-3-2---2-2-2-2-2---2-2-2-2----|
E|--0---0-0-0-0-0---0-0-0-0-3---3-3-3-3-3---3-3-3-3----|


(NOTE: everything is the same for all lyrics except the
following)

Face them all


e|--0---0-0-0-0-0---0-0-0-0-0---0-0-0-0-0---0-0-0-0----|
B|--0---0-0-0-0-0---0-0-0-0-0---0-0-0-0-0---0-0-0-0----|
G|--0---0-0-0-0-0---0-0-0-0-0---0-0-0-0-0---0-0-0-0----|
D|--1---1-1-1-1-2---2-2-2-2-0---0-0-0-0-0---0-0-0-0----|
A|--2---2-2-2-2-2---2-2-2-2-2---2-2-2-2-2---2-2-2-2----|
E|--0---0-0-0-0-0---0-0-0-0-3---3-3-3-3-3---3-3-3-3----|


No more patience


e|--0---0-0-0-0-0---0-0-0-0-0---0-0-0-0-0---0-0-0-0----|
B|--0---0-0-0-0-0---0-0-0-0-0---0-0-0-0-0---0-0-0-0----|
G|--0---0-0-0-0-0---0-0-0-0-0---0-0-0-0-0---0-0-0-0----|
D|--2---2-2-2-2-0---0-0-0-0-4---4-4-4-4-2---2-2-2-2----|
A|--3---3-3-3-3-2---2-2-2-2-2---2-2-2-2-2---2-2-2-2----|
E|--0---0-0-0-0-3---3-3-3-3-0---0-0-0-0-0---0-0-0-0----|


e|-------------------------------------|
B|-----0-------0-------0---------------|
G|--4----4--2----2--0----0-------0-----|
D|---0---------------0---------0---0---|
A|----0-------0-------0-----0h2--------| x4
E|--3---3-3-3---3-3-3---3-3-3-3-3-3-3--|
e|-----0---------0---------0---------0-------|
B|--4----4----4----4----3----3----0----0-----|
G|---0-----0---0-----0---0-----0---0-----0---|
D|-------------------------------------------|
A|-------------------------------------------|
E|--3-3-3-3-3-3-3-3-3-3-3-3-3-3-3-3-3-3-3-3--|
e|-----0---------0---------0-----------------|
B|--4----4----4----4----3----3-----0-0-0-0---|
G|---0-----0---0-----0---0-----0-------------|
D|-------------------------------------------|
A|-------------------------------------------|
E|--3-3-3-3-3-3-3-3-3-3-3-3-3-3-3-3-3-3-3-3--|
e|-----0---------0---------0---------0-------|
B|--4----4----4----4----3----3----0----0-----|
G|---0-----0---0-----0---0-----0---0-----0---|
D|-------------------------------------------|
A|-------------------------------------------|
E|--3-3-3-3-3-3-3-3-3-3-3-3-3-3-3-3-3-3-3-3--|
e|-----0---------0---------0---------0-------|
B|--4----4----4----4----3----3----0----------|
G|---0-----0---0-----0---0-----0---0---------|
D|-------------------------------------------|
A|-------------------------------------------|
E|--3-3-3-3-3-3-3-3-3-3-3-3-3-3-3-3-3-3-3-3--|
e|--------------------------------------|
B|--------------------------------------|
G|--3--0---------0----3--0--------------|
D|--------3---0h3-----------3p03--------|
A|--------------------------------2-----| x4
E|--3--3--3--3--3--3--3--3--3--3--3--3--|

(NOTE: the 3s are spaced farther apart in order to fit the
pull offs and hammer ons. Its still the same speed.)

Ending: (pretty much the G chord the whole time)

Hey there young man come understand


e|--0---0-0-0-0-----|
B|--0---0-0-0-0-----|
G|--0---0-0-0-0-----|
D|--0---0-0-0-0-----|
A|--2---2-2-2-2-----| x7
E|--3---3-3-3-3-----|


e|--0---0-0------|
B|--0---0-0------|
G|--3p0-3-0------|
D|--0---0-0------|
A|--2---2-2------|
E|--3---3-3------|


I see your stress come take our test


e|--0---0-0-0-0-----|
B|--0---0-0-0-0-----|
G|--0---0-0-0-0-----|
D|--0---0-0-0-0-----|
A|--2---2-2-2-2-----| x7
E|--3---3-3-3-3-----|


e|--0---0-0------|
B|--0---0-0------|
G|--3p0-3-0------|
D|--0---0-0------|
A|--2---2-2------|
E|--3---3-3------|


You need Help!


e|--0---0-0-0-0-----|
B|--0---0-0-0-0-----|
G|--0---0-0-0-0-----|
D|--0---0-0-0-0-----|
A|--2---2-2-2-2-----| x16
E|--3---3-3-3-3-----|


e|--------------------------------------|
B|--------------------------------------|
G|--3--0---------0----3--0--------------|
D|--------3---0h3-----------3p03--------|
A|--------------------------------2-----|
E|--3--3--3--3--3--3--3--3--3--3--3--3--|
e|--------------------------0-0-0-0-0-0---|
B|--------------------------0-0-0-0-0-0---|
G|--3--0---------0----3--0--0-0-3-0-3-0---|
D|--------3---0h3-----------0-0-0-0-0-0---|
A|--------------------------2-2-2-2-2-2---|
E|--3--3--3--3--3--3--3--3--3-3-3-3-3-3-3-|


e|--0-0-0-0-0-0-0-0-0-0-0--0-0-0-|
B|--0-0-0-0-0-0-0-0-0-0-0--0-0-0-|
G|--3-0-0-0-0-0-0-0-3-0-0--0-0-0-|
D|--0-0-3-3-0-3-0-0-0-0-3p03-3-0-|
A|--2-2-2-2-2-2-2-2-2-2-2--2-2-2-| x2
E|--3-3-3-3-3-3-3-3-3-3-3--3-3-3-|


I went downtown to look around


e|--0---0-0-0-0-----|
B|--0---0-0-0-0-----|
G|--0---0-0-0-0-----|
D|--0---0-0-0-0-----|
A|--2---2-2-2-2-----| x7
E|--3---3-3-3-3-----|


e|--0---0-0------|
B|--0---0-0------|
G|--3p0-3-0------|
D|--0---0-0------|
A|--2---2-2------|
E|--3---3-3------|


This lady beckons me to come


e|--0---0-0-0-0-----|
B|--0---0-0-0-0-----|
G|--0---0-0-0-0-----|
D|--0---0-0-0-0-----|
A|--2---2-2-2-2-----| x7
E|--3---3-3-3-3-----|


e|--0---0-0------|
B|--0---0-0------|
G|--3p0-3-0------|
D|--0---0-0------|
A|--2---2-2------|
E|--3---3-3------|


You need Help!


e|--0---0-0-0-0-----|
B|--0---0-0-0-0-----|
G|--0---0-0-0-0-----|
D|--0---0-0-0-0-----|
A|--2---2-2-2-2-----| x16
E|--3---3-3-3-3-----|


e|--------------------------------------|
B|--------------------------------------|
G|--3--0---------0----3--0--------------|
D|--------3---0h3-----------3p03--------|
A|--------------------------------2-----|
E|--3--3--3--3--3--3--3--3--3--3--3--3--|
e|--------------------------0-0-0-0-0-0---|
B|--------------------------0-0-0-0-0-0---|
G|--3--0---------0----3--0--0-0-3-0-3-0---|
D|--------3---0h3-----------0-0-0-0-0-0---|
A|--------------------------2-2-2-2-2-2---|
E|--3--3--3--3--3--3--3--3--3-3-3-3-3-3-3-|


e|--0-0-0-0-0-0-0-0-0-0-0--0-0-0-|
B|--0-0-0-0-0-0-0-0-0-0-0--0-0-0-|
G|--3-0-0-0-0-0-0-0-3-0-0--0-0-0-|
D|--0-0-3-3-0-3-0-0-0-0-3p03-3-0-|
A|--2-2-2-2-2-2-2-2-2-2-2--2-2-2-| x2
E|--3-3-3-3-3-3-3-3-3-3-3--3-3-3-|


e|--0---0-0-0-0-----|
B|--0---0-0-0-0-----|
G|--3---0-0-0-0-----|
D|--0---0-0-0-0-----|
A|--2---2-2-2-2-----| x6
E|--3---3-3-3-3-----|


e|--0-0-0-0-0--0--|
B|--0-0-0-0-0--0--|
G|--5-3-0-3-0--0--|
D|--0-0-0-0-0--3--|
A|--0-0-0-0-0--0--|
E|--0-0-0-0-0--0--|


e|--0---0-0-0-0-----|
B|--0---0-0-0-0-----|
G|--3---0-0-0-0-----|
D|--0---0-0-0-0-----|
A|--2---2-2-2-2-----| x6
E|--3---3-3-3-3-----|


e|--0-0-0-0-0--0--|
B|--0-0-0-0-0--0--|
G|--5-3-0-3-0--0--|
D|--0-0-0-0-0--3--|
A|--0-0-0-0-0--0--|
E|--0-0-0-0-0--0--|


We let you in and we see your face


e|--0---0-0-0-0-----|
B|--0---0-0-0-0-----|
G|--0---0-0-0-0-----|
D|--0---0-0-0-0-----|
A|--2---2-2-2-2-----| x7
E|--3---3-3-3-3-----|


e|--0---0-0------|
B|--0---0-0------|
G|--3p0-3-0------|
D|--0---0-0------|
A|--2---2-2------|
E|--3---3-3------|


And when you try to leave its much too late


e|--0---0-0-0-0-----|
B|--0---0-0-0-0-----|
G|--0---0-0-0-0-----|
D|--0---0-0-0-0-----|
A|--2---2-2-2-2-----| x7
E|--3---3-3-3-3-----|


e|--0---0-0------|
B|--0---0-0------|
G|--3p0-3-0------|
D|--0---0-0------|
A|--2---2-2------|
E|--3---3-3------|


You need Help!


e|--0---0-0-0-0-----|
B|--0---0-0-0-0-----|
G|--0---0-0-0-0-----|
D|--0---0-0-0-0-----|
A|--2---2-2-2-2-----| x16
E|--3---3-3-3-3-----|


e|--------------------------------------|
B|--------------------------------------|
G|--3--0---------0----3--0--------------|
D|--------3---0h3-----------3p03--------|
A|--------------------------------2-----|
E|--3--3--3--3--3--3--3--3--3--3--3--3--|
e|--------------------------0-0-0-0-0-0---|
B|--------------------------0-0-0-0-0-0---|
G|--3--0---------0----3--0--0-0-3-0-3-0---|
D|--------3---0h3-----------0-0-0-0-0-0---|
A|--------------------------2-2-2-2-2-2---|
E|--3--3--3--3--3--3--3--3--3-3-3-3-3-3-3-|


e|--0-0-0-0-0-0-0-0-0-0-0--0-0-0-|
B|--0-0-0-0-0-0-0-0-0-0-0--0-0-0-|
G|--3-0-0-0-0-0-0-0-3-0-0--0-0-0-|
D|--0-0-3-3-0-3-0-0-0-0-3p03-3-0-|
A|--2-2-2-2-2-2-2-2-2-2-2--2-2-2-| x2
E|--3-3-3-3-3-3-3-3-3-3-3--3-3-3-|


e|--0-0-0-0-0-----|
B|--0-0-0-0-0-----|
G|--0-0-3-0-3-----|
D|--0-0-0-0-0-----|
A|--2-2-2-2-2-----|
E|--3-3-3-3-3-3---|


e|--------------------------------------|
B|--------------------------------------|
G|--3--0---------0----3--0--------------|
D|--------3---0h3-----------3p03--------|
A|--------------------------------2-----| x8
E|--3--3--3--3--3--3--3--3--3--3--3--3--|
e|--0---0-0-0-0-0---0-0-0-0-0---0-0-0-0-0---0-0-0-0----|
B|--0---0-0-0-0-0---0-0-0-0-0---0-0-0-0-0---0-0-0-0----|
G|--3---3-3-3-3-3---3-3-3-3-4---4-4-4-4-4---4-4-4-4----|
D|--0---0-0-0-0-0---0-0-0-0-0---0-0-0-0-0---0-0-0-0----|
A|--0---0-0-0-0-0---0-0-0-0-0---0-0-0-0-0---0-0-0-0----|
E|--3---3-3-3-3-3---3-3-3-3-3---3-3-3-3-3---3-3-3-3----|


e|--0---0-0-0-0-0---0-0-0-0-0---0-0-0-0-0---0-0-0-0----|
B|--0---0-0-0-0-0---0-0-0-0-0---0-0-0-0-0---0-0-0-0----|
G|--5---5-5-5-5-5---5-5-5-5-6---6-6-6-6-6---6-6-6-6----|
D|--0---0-0-0-0-0---0-0-0-0-0---0-0-0-0-0---0-0-0-0----|
A|--0---0-0-0-0-0---0-0-0-0-0---0-0-0-0-0---0-0-0-0----|
E|--3---3-3-3-3-3---3-3-3-3-3---3-3-3-3-3---3-3-3-3----|


e|--0---0-0-0-0-0---0-0-0-0-0---0-0-0-0-0---0-0-0-0----|
B|--0---0-0-0-0-0---0-0-0-0-0---0-0-0-0-0---0-0-0-0----|
G|--7---7-7-7-7-7---7-7-7-7-8---8-8-8-8-8---8-8-8-8----|
D|--0---0-0-0-0-0---0-0-0-0-0---0-0-0-0-0---0-0-0-0----|
A|--0---0-0-0-0-0---0-0-0-0-0---0-0-0-0-0---0-0-0-0----|
E|--3---3-3-3-3-3---3-3-3-3-3---3-3-3-3-3---3-3-3-3----|


e|--0---0-0-0-0-0---0-0-0-0-0-0-0-0-0-0----|
B|--0---0-0-0-0-0---0-0-0-0-0-0-0-0-0-0----|
G|--7---7-7-7-7-7---7-7-7-7-7-6-5-4-3-0----|
D|--0---0-0-0-0-0---0-0-0-0-0-0-0-0-0-0----|
A|--0---0-0-0-0-0---0-0-0-0-0-0-0-0-0-0----|
E|--3---3-3-3-3-3---3-3-3-3-3-3-3-3-3-3----|


e|--0-0-0-0-0-0-0-0-0-0-0--0-0-0-|
B|--0-0-0-0-0-0-0-0-0-0-0--0-0-0-|
G|--3-0-0-0-0-0-0-0-3-0-0--0-0-0-|
D|--0-0-3-3-0-3-0-0-0-0-3p03-3-0-|
A|--2-2-2-2-2-2-2-2-2-2-2--2-2-2-| x2
E|--3-3-3-3-3-3-3-3-3-3-3--3-3-3-|


e|--0---0---0----|
B|--0---0---0----|
G|--0---0---0----|
D|--0---0---0----|
A|--2---2---2----|
E|--3---3---3----|


To play the most songs, including Joe’s Waltz by The Dodos by ukulele, the most important basic ukulele chords to learn are C chord, D chord, G chord, and Em chord.
These set you up to play a ton of songs, and each of them is easy to master.

Gravatar Image
Like to play Ukulele and Sudoku Game

Leave a Reply

Your email address will not be published. Required fields are marked *