Iron by Ensiferum Ukulele Chords

Posted on

If you are looking for Iron ukulele chords, you’ve come to the best site.
You can play versatile instrument Iron using ukulele or guitar.
This song by Ensiferum can also be played by that instruments.
=

Iron chords has rhythm and included in Iron (2004) album.
You can also get another musical genres, including jazz ukulele chords, country music ukulele chords, pop ukulele chords, world music ukulele chords, and rock ukulele chords here.

Iron by Ensiferum Ukulele Chords


As recorded by Ensiferum

Gtr I (E A D G B E) – ‘Rhythm’
Gtr II (E A D G B E) – ‘Lead’

Q185
[4/4] Gtr I
Q S S S S Q S S S S Q E E Q E E


|-----------------------|---------------|
|-----------------------|---------------|
|-----------------------|---------------|
|-2----------4----------|----5---5------|
|-2----------2--2-2-2-2-|-5--3---3--3-3-|
|-0--0-0-0-0------------|-3-------------|

|
| Gtr II
| W W


|-----------------------|---------------|
|-----------------------|---------------|
|-----------------------|---------------|
|-----------------------|---------------|
|-----------------------|---------------|
|-----------------------|---------------|

E E Q H H Q E E


|------------------|---------------------|
|------------------|---------------------|
|--2---------------|---------------------|
|--0---------------|---------------------|
|------------------|----------------5-4--|
|------------------|----------------3-2--|

|
| E E E E H E E E E H


|------------------|---------------------|
|------------------|---------------------|
|------------19----|-21---21-19-21-------|
|-24---24-22-------|---------------------|
|------------------|-19---19----19-------|
|-22---22-20-22----|---------22----------|

E E Q H W E E E E H E E E E H


|-----------------------|------------------|--------------|--------------|
|-----------------------|------------------|--------------|--------------|
|-----------------------|------------------|-2---2---2----|-4---4-2-4----|
|-----------------------|------------------|-0---0-5-0----|-2---2-0-2----|
|--2--------------------|------------------|-------3------|--------------|
|--0--------------------|------------------|--------------|--------------|

|
| E E E E Q E E E E E E H W W


|-----------------------|------------24----|--------------|--------------|
|-----------------------|------------------|--------------|--------------|
|-----------------14----|------------------|--------------|--------------|
|----21-19-17-16-----16-|-17-16-14---------|--------------|--------------|
|-19--------------------|------------------|--------------|--------------|
|-----------------------|------------------|--------------|--------------|

Q S S S S Q S S S S Q E E Q S S S S E E E E Q S S S S


|-----------------------|--------------------|---------------------|
|-----------------------|--------------------|---------------------|
|-----------------------|--------------------|-2---2---2-----------|
|-2----------4----------|-----5---5----------|-0---0-5-0--0-0-0-0--|
|-2----------2--2-2-2-2-|-5---3---3--3-3-3-3-|-------3-------------|
|-0--0-0-0-0------------|-3------------------|---------------------|

|
| Q E E Q E E E E E E Q E E E E E E H


|-----------------------|--------------------|---------------------|
|-----------------------|--------------------|---------------------|
|-4--2---0------2-------|--------------------|---------------------|
|------------4------4---|-5-4-2---2--2---2---|-4---4-2-4-----------|
|-----------------------|--------------------|---------------------|
|-----------------------|--------------------|---------------------|

E E E E H Q S S S S Q S S S S Q E E Q S S S S


|--------------|-----------------------|--------------------|
|--------------|-----------------------|--------------------|
|-4---4-2-4----|-----------------------|--------------------|
|-2---2-0-2----|-2----------4----------|-----5---5----------|
|--------------|-2----------2--2-2-2-2-|-5---3---3--3-3-3-3-|
|--------------|-0--0-0-0-0------------|-3------------------|

|
| E E E E H Q E E Q E E E E E E Q E E


|--------------|-----------------------|--------------------|
|--------------|-----------------------|--------------------|
|--------------|-4--2---0------2-------|--------------------|
|-2---2-0-2----|------------4------4---|-2-4-5---5--5---5---|
|--------------|-----------------------|--------------------|
|--------------|-----------------------|--------------------|

E E E E Q S S S S E E E E H Q S S S S Q S S S S


|--------------------|--------------|-----------------------|
|--------------------|--------------|-----------------------|
|-2---2--------------|-4---4-2-4----|-----------------------|
|-0---0-5-4----------|-2---2-0-2----|-2----------4----------|
|-------3-2--2-2-2-2-|--------------|-2----------2--2-2-2-2-|
|--------------------|--------------|-0--0-0-0-0------------|

|
| E E E E H E E E E H Q E E Q E E


|--------------------|--------------|-----------------------|
|--------------------|--------------|-----------------------|
|--------------------|--------------|-4--2---0------2-------|
|-4---4-2-0----------|-2---2-0-2----|------------4------4---|
|--------------------|--------------|-----------------------|
|--------------------|--------------|-----------------------|

Q E E Q S S S S E E E E Q S S S S E E E E H


|--------------------|--------------------|--------------|
|--------------------|--------------------|--------------|
|--------------------|-2---2---2----------|-4---4-2-4----|
|-----5---5----------|-0---0-5-0--0-0-0-0-|-2---2-0-2----|
|-5---3---3--3-3-3-3-|-------3------------|--------------|
|-3------------------|--------------------|--------------|

|
| E E E E Q E E E E E E H E E E E H


|--------------------|--------------------|--------------|
|--------------------|--------------------|--------------|
|--------------------|--------------------|--------------|
|-5-4-2---2--2---2---|-4---4-2-4----------|-2---2-0-2----|
|--------------------|--------------------|--------------|
|--------------------|--------------------|--------------|

Q S S S S Q S S S S Q E E Q S S S S E E E E Q S S S S


|-----------------------|--------------------|---------------------|
|-----------------------|--------------------|---------------------|
|-----------------------|--------------------|-2---2---------------|
|-2----------4----------|-----5---5----------|-0---0-5-4-----------|
|-2----------2--2-2-2-2-|-5---3---3--3-3-3-3-|-------3-2--2-2-2-2--|
|-0--0-0-0-0------------|-3------------------|---------------------|

|
| Q E E Q E E E E E E Q E E E E E E H


|-----------------------|--------------------|---------------------|
|-----------------------|--------------------|---------------------|
|-4--2---0------2-------|--------------------|---------------------|
|------------4------4---|-2-4-5---5--5---5---|-4---4-2-0-----------|
|-----------------------|--------------------|---------------------|
|-----------------------|--------------------|---------------------|

E E E E H E S S S S S S S S S S S S S S


|--------------|---------------------------------|
|--------------|---------------------------------|
|-4---4-2-4----|---------------------------------|
|-2---2-0-2----|---------------------------------|
|--------------|-2-------------------------------|
|--------------|-0-0-0-0---0-0-0---0-0--0----0-0-|

|
| E E E E H Q E E E E +E E


|--------------|---------------------------------|
|--------------|---------------------------------|
|--------------|---------------------------------|
|-2---2-0-2----|-2-----2---4---5-----------------|
|--------------|-------------------7---(7)---7---|
|--------------|---------------------------------|

S S S S S S S S S S S S S S S S E S S S S S S E S S S S S S


|---------------------------------|------------------------------|
|---------------------------------|------------------------------|
|---------------------------------|------------------------------|
|---------------------------------|---------------2--------------|
|---------------------------------|-5-------------0-0-0-0---0-0--|
|-0---0-0-0---0-0-0---0-0-0---0-0-|-3-3-3-3---3-3----------------|

|
| E E E E H Q Q H


|---------------------------------|------------------------------|
|---------------------------------|------------------------------|
|-----4---2---0-------------------|---------------2--------------|
|-5---------------2---------------|-0-----4----------------------|
|---------------------------------|------------------------------|
|---------------------------------|------------------------------|

E S S S S S S S S S S Q E S S S S S S S S S S S S S S


|--------------------------|---------------------------------|
|--------------------------|---------------------------------|
|-----------------------2--|---------------------------------|
|-5---------------------0--|---------------------------------|
|-3-3-3-3---3-3-3---3-3----|-2-------------------------------|
|--------------------------|-0-0-0-0---0-0-0---0-0--0----0-0-|

|
| Q H Q Q E E E E +E E


|--------------------------|---------------------------------|
|--------------------------|---------------------------------|
|-0------------------------|---------------------------------|
|-------2---------------0--|-2-----2---4---5-----------------|
|--------------------------|-------------------7---(7)---7---|
|--------------------------|---------------------------------|

S S S S S S S S S S S S S S S S E S S S S S S E S S S S S S


|---------------------------------|------------------------------|
|---------------------------------|------------------------------|
|---------------------------------|------------------------------|
|---------------------------------|---------------2--------------|
|---------------------------------|-5-------------0-0-0-0---0-0--|
|-0---0-0-0---0-0-0---0-0-0---0-0-|-3-3-3-3---3-3----------------|

|
| E E E E H Q Q H


|---------------------------------|------------------------------|
|---------------------------------|------------------------------|
|-----4---2---0-------------------|---------------2--------------|
|-5---------------2---------------|-0-----4----------------------|
|---------------------------------|------------------------------|
|---------------------------------|------------------------------|

E S S S S S S S S S S Q E S S S S S S S S S S S S S S


|--------------------------|---------------------------------|
|--------------------------|---------------------------------|
|-2---------------------2--|---------------------------------|
|-0-0-0-0---0-0-0---0-0-0--|---------------------------------|
|--------------------------|-2-------------------------------|
|--------------------------|-0-0-0-0---0-0-0---0-0--0----0-0-|

|
| Q Q Q Q Q E E E E +E E


|--------------------------|---------------------------------|
|--------------------------|---------------------------------|
|-0------------------------|---------------------------------|
|-------2-------0-------4--|-2-----2---4---5-----------------|
|--------------------------|-------------------7---(7)---7---|
|--------------------------|---------------------------------|

S S S S S S S S S S S S S S S S E S S S S S S E S S S S S S


|---------------------------------|------------------------------|
|---------------------------------|------------------------------|
|---------------------------------|------------------------------|
|---------------------------------|---------------2--------------|
|---------------------------------|-5-------------0-0-0-0---0-0--|
|-0---0-0-0---0-0-0---0-0-0---0-0-|-3-3-3-3---3-3----------------|

|
| E E E E H Q Q H


|---------------------------------|------------------------------|
|---------------------------------|------------------------------|
|-----4---2---0-------------------|---------------2--------------|
|-5---------------2---------------|-0-----4----------------------|
|---------------------------------|------------------------------|
|---------------------------------|------------------------------|

E S S S S S S S S S S Q E S S S S S S S S S S S S S S


|--------------------------|---------------------------------|
|--------------------------|---------------------------------|
|-----------------------2--|---------------------------------|
|-5---------------------0--|---------------------------------|
|-3-3-3-3---3-3-3---3-3----|-2-------------------------------|
|--------------------------|-0-0-0-0---0-0-0---0-0--0----0-0-|

|
| Q H Q Q E E E E +E E


|--------------------------|---------------------------------|
|--------------------------|---------------------------------|
|-0------------------------|---------------------------------|
|-------2---------------0--|-2-----2---4---5-----------------|
|--------------------------|-------------------7---(7)---7---|
|--------------------------|---------------------------------|

S S S S S S S S S S S S S S S S E S S S S S S E S S S S S S


|---------------------------------|------------------------------|
|---------------------------------|------------------------------|
|---------------------------------|------------------------------|
|---------------------------------|---------------2--------------|
|---------------------------------|-5-------------0-0-0-0---0-0--|
|-0---0-0-0---0-0-0---0-0-0---0-0-|-3-3-3-3---3-3----------------|

|
| E E E E Q E E Q E E Q E E


|---------------------------------|------------------------------|
|---------------------------------|------------------------------|
|-----4---2---0---2-------0-------|------------------------------|
|-5---------------------------4---|-2-----4---5---7-----5---7----|
|---------------------------------|------------------------------|
|---------------------------------|------------------------------|

W Q E E Q E E Q E E Q E E E E E E Q E E


|----------|---------------|----------------|----------------|
|----------|---------------|----------------|----------------|
|----------|---------------|----------------|-2---2---2------|
|-4--------|-2------4------|-----5---5------|-0---0-5-0--0-0-|
|-2--------|-2------2--2-2-|-----3---3--3-3-|-------3--------|
|----------|-0--0-0--------|-3--------------|----------------|

|
| W Q E E Q E E E E E E Q E E E E E E H


|----------|---------------|----------------|----------------|
|----------|---------------|----------------|----------------|
|----------|-----------2---|----------------|----------------|
|-9--------|-9--7-5-4----4-|-5-4-2---2--2-2-|-4---4-2-4------|
|----------|---------------|----------------|----------------|
|----------|---------------|----------------|----------------|

E E E E H Q E E Q E E Q E E Q E E E E E E Q E E


|--------------|---------------|----------------|----------------|
|--------------|---------------|----------------|----------------|
|-4---4-2-4----|---------------|----------------|-2---2----------|
|-2---2-0-2----|-2------4------|-----5---5------|-0---0-5-4------|
|--------------|-2------2--2-2-|-----3---3--3-3-|-------3-2--2-2-|
|--------------|-0--0-0--------|-3--------------|----------------|

|
| E E E E H Q E E Q E E E E E E Q E E E E E E H


|--------------|---------------|----------------|----------------|
|--------------|---------------|----------------|----------------|
|--------------|-4--2-0----2---|----------------|----------------|
|-2---2-0-2----|--------4----4-|-2-4-5---5--5-5-|-4---4-2-0------|
|--------------|---------------|----------------|----------------|
|--------------|---------------|----------------|----------------|

E E E E H Q E E Q E E Q E E Q E E E E E E Q Q


|--------------|---------------|----------------|---------------|
|--------------|---------------|----------------|---------------|
|-4---4-2-4----|--------2------|----------------|------------2--|
|-2---2-0-2----|-2------0--0-0-|----------------|-4---4-2-4--0--|
|--------------|-2-------------|-2-------2------|-2---2-0-2-----|
|--------------|-0--0-0--------|-0---0---0--0-0-|---------------|

|
| E E E E H Q E E Q E E E E E E Q E E E E E E Q Q


|--------------|---------------|----------------|---------------|
|--------------|---------------|----------------|---------------|
|--------------|-4--2-0----2---|----------------|------------2--|
|-2---2-0-2----|--------4----4-|-5-4-2---2--4-5-|-7---7-5-4-----|
|--------------|---------------|----------------|---------------|
|--------------|---------------|----------------|---------------|

E E E E H Q E E Q E E E E E E Q E E E E E E Q E E


|--------------|---------------|----------------|----------------|
|--------------|---------------|----------------|----------------|
|-4---4-2-4----|---------------|---2-4---2------|-2---2----------|
|-2---2-0-2----|-2------4------|-5-0-2---0--0-0-|-0---0-5-4------|
|--------------|-2------2--2-2-|-3--------------|-------3-2--2-2-|
|--------------|-0--0-0--------|----------------|----------------|

|
| E E E E H Q E E Q E E E E E E H E E E E H


|--------------|---------------|----------------|----------------|
|--------------|---------------|----------------|----------------|
|-4---4-2-4----|-4--2-0----2---|----------------|----------------|
|--------------|--------4----4-|-2-4-5---4------|-4---4-2-0------|
|--------------|---------------|----------------|----------------|
|--------------|---------------|----------------|----------------|

E E E E H E S S S S S S S S S S Q E S S S S S S Q Q


|--------------|---------------------------|-----------------------|
|--------------|---------------------------|-----------------------|
|-4---4-2-4----|---------------------------|-----------------------|
|-2---2-0-2----|---------------------------|--2-------------4--4---|
|--------------|-2----------------------5--|--0-0-0-0---0-0-2--2---|
|--------------|-0--0-0-0---0-0-0---0-0-3--|-----------------------|

|
| E E E E H H. Q E E E E H


|--------------|------------------------7--|-10-9---7---5---7------|
|--------------|-5-------------------------|-----------------------|
|--------------|---------------------------|-----------------------|
|-2---2-0-2----|---------------------------|-----------------------|
|--------------|---------------------------|-----------------------|
|--------------|---------------------------|-----------------------|

E S S S S S S E S S S S S S E S S S S S S S S S S S S S S


|---------------------------------|-------------------------------|
|---------------------------------|-------------------------------|
|---------------------------------|-4-----------------------------|
|------------------2--------------|-2-2-2-2---2-2-2-2-2-2-2-2-2-2-|
|--5---------------0--0-0-0---0-0-|-------------------------------|
|--3--3-3-3----3-3----------------|-------------------------------|

|
| Q. E E S S E E W


|-10----------10---9-10-9-7---5---|-7-----------------------------|
|---------------------------------|-------------------------------|
|---------------------------------|-------------------------------|
|---------------------------------|-------------------------------|
|---------------------------------|-------------------------------|
|---------------------------------|-------------------------------|

E S S S S S S S S S S Q E S S S S S S Q Q


|---------------------------|----------------------|
|---------------------------|----------------------|
|---------------------------|----------------------|
|---------------------------|--2-------------4--4--|
|-2----------------------5--|--0-0-0-0---0-0-2--2--|
|-0--0-0-0---0-0-0---0-0-3--|----------------------|

|
| H. Q E E E E H


|------------------------7--|-10-9---7---5---7-----|
|-5-------------------------|----------------------|
|---------------------------|----------------------|
|---------------------------|----------------------|
|---------------------------|----------------------|
|---------------------------|----------------------|

E S S S S S S E S S S S S S W W


|------------------------------|---------------|-------------|
|------------------------------|---------------|-------------|
|------------------------------|---------------|--2----------|
|------------------------------|---------------|--0----------|
|-5--------------4-------------|-2-------------|-------------|
|-3--3-3-3---3-3-2-2-2-2---2-2-|-0-------------|-------------|

|
| Q. E E S S E E H +Q.. S +H. Q


|------------------------------|---------------|-------------|
|-8----------8---7-8-7-5---3---|-5----(5)----3-|-(3)------5--|
|------------------------------|---------------|-------------|
|------------------------------|---------------|-------------|
|------------------------------|---------------|-------------|
|------------------------------|---------------|-------------|

W Q S S S S Q S S S S W W


|------------------|-----------------------|---------------|-------------|
|------------------|-----------------------|---------------|-------------|
|------------------|-----------------------|---------------|--2----------|
|------------------|------------5----------|---------------|--0----------|
|-5----------------|-2----------3--3-3-3-3-|-5-------------|-------------|
|-3----------------|-0--0-0-0-0------------|-3-------------|-------------|

|
| E E +E E +H H Q E E H +Q.. S +H. Q


|------------------|-----------------------|---------------|-------------|
|------------------|-----------------------|-------------3-|-(3)------5--|
|-4-2-(2)-4-(4)----|------------0------0---|-4----(4)------|-------------|
|------------------|-2-------------2-------|---------------|-------------|
|------------------|-----------------------|---------------|-------------|
|------------------|-----------------------|---------------|-------------|

W Q S S S S Q S S S S W W


|------------------|-----------------------|----------|------|
|------------------|-----------------------|----------|------|
|------------------|-----------------------|----------|------|
|-2----------------|-5---------------------|-4--------|------|
|-0----------------|-3--3-3-3-3-5----------|-2--------|------|
|------------------|------------3--3-3-3-3-|----------|------|

|
| E E +E E +H H Q Q W W


|------------------|-----------------------|----------|------|
|------------------|-----------------------|----------|------|
|-4-2-(2)-4-(4)----|-5----------4--2-------|-4--------|------|
|------------------|-----------------------|----------|------|
|------------------|-----------------------|----------|------|
|------------------|-----------------------|----------|------|

E S S S S S S S S S S S S S S S S S S S S S S S S S S S S S S


|---------------------------------|---------------------------------|
|---------------------------------|---------------------------------|
|---------------------------------|---------------------------------|
|---------------------------------|---------------------------------|
|-2-------------------------------|---------------------------------|
|-0-0-0-0---0-0-0---0-0--0----0-0-|-0---0-0-0---0-0-0---0-0-0---0-0-|

|
| Q E E E E +E E E E E E H


|---------------------------------|---------------------------------|
|---------------------------------|---------------------------------|
|---------------------------------|-----4---2---0-------------------|
|-2-----2---4---5-----------------|-5---------------2---------------|
|-------------------7---(7)---7---|---------------------------------|
|---------------------------------|---------------------------------|

E S S S S S S E S S S S S S E S S S S S S S S S S Q


|-----------------------------|--------------------------|
|-----------------------------|--------------------------|
|-----------------------------|-----------------------2--|
|---------------2-------------|-5---------------------0--|
|-5-------------0-0-0-0---0-0-|-3-3-3-3---3-3-3---3-3----|
|-3-3-3-3---3-3---------------|--------------------------|

|
| Q Q H Q H Q


|-----------------------------|--------------------------|
|-----------------------------|--------------------------|
|---------------2-------------|-0------------------------|
|-0-----4---------------------|-------2---------------0--|
|-----------------------------|--------------------------|
|-----------------------------|--------------------------|

E S S S S S S S S S S S S S S S S S S S S S S S S S S S S S S


|---------------------------------|---------------------------------|
|---------------------------------|---------------------------------|
|---------------------------------|---------------------------------|
|---------------------------------|---------------------------------|
|-2-------------------------------|---------------------------------|
|-0-0-0-0---0-0-0---0-0--0----0-0-|-0---0-0-0---0-0-0---0-0-0---0-0-|

|
| Q E E E E +E E E E E E H


|---------------------------------|---------------------------------|
|---------------------------------|---------------------------------|
|---------------------------------|-----4---2---0-------------------|
|-2-----2---4---5-----------------|-5---------------2---------------|
|-------------------7---(7)---7---|---------------------------------|
|---------------------------------|---------------------------------|

E S S S S S S E S S S S S S E S S S S S S S S S S Q


|-----------------------------|--------------------------|
|-----------------------------|--------------------------|
|-----------------------------|-2---------------------2--|
|---------------2-------------|-0-0-0-0---0-0-0---0-0-0--|
|-5-------------0-0-0-0---0-0-|--------------------------|
|-3-3-3-3---3-3---------------|--------------------------|

|
| Q Q H Q Q Q Q


|-----------------------------|--------------------------|
|-----------------------------|--------------------------|
|---------------2-------------|-0------------------------|
|-0-----4---------------------|-------2-------0-------4--|
|-----------------------------|--------------------------|
|-----------------------------|--------------------------|

E S S S S S S S S S S S S S S S S S S S S S S S S S S S S S S


|---------------------------------|---------------------------------|
|---------------------------------|---------------------------------|
|---------------------------------|---------------------------------|
|---------------------------------|---------------------------------|
|-2-------------------------------|---------------------------------|
|-0-0-0-0---0-0-0---0-0--0----0-0-|-0---0-0-0---0-0-0---0-0-0---0-0-|

|
| Q E E E E +E E E E E E H


|---------------------------------|---------------------------------|
|---------------------------------|---------------------------------|
|---------------------------------|-----4---2---0-------------------|
|-2-----2---4---5-----------------|-5---------------2---------------|
|-------------------7---(7)---7---|---------------------------------|
|---------------------------------|---------------------------------|

E S S S S S S E S S S S S S E S S S S S S S S S S Q


|-----------------------------|--------------------------|
|-----------------------------|--------------------------|
|-----------------------------|-----------------------2--|
|---------------2-------------|-5---------------------0--|
|-5-------------0-0-0-0---0-0-|-3-3-3-3---3-3-3---3-3----|
|-3-3-3-3---3-3---------------|--------------------------|

|
| Q Q H Q H Q


|-----------------------------|--------------------------|
|-----------------------------|--------------------------|
|---------------2-------------|-0------------------------|
|-0-----4---------------------|-------2---------------0--|
|-----------------------------|--------------------------|
|-----------------------------|--------------------------|

E S S S S S S S S S S S S S S S S S S S S S S S S S S S S S S


|---------------------------------|---------------------------------|
|---------------------------------|---------------------------------|
|---------------------------------|---------------------------------|
|---------------------------------|---------------------------------|
|-2-------------------------------|---------------------------------|
|-0-0-0-0---0-0-0---0-0--0----0-0-|-0---0-0-0---0-0-0---0-0-0---0-0-|

|
| Q E E E E +E E E E E E Q E E


|---------------------------------|---------------------------------|
|---------------------------------|---------------------------------|
|---------------------------------|-----4---2---0---2-------0-------|
|-2-----2---4---5-----------------|-5---------------------------4---|
|-------------------7---(7)---7---|---------------------------------|
|---------------------------------|---------------------------------|

E S S S S S S E S S S S S S W Q S S S S Q S S S S


|-----------------------------|----------|------------------------|
|-----------------------------|----------|------------------------|
|-----------------------------|----------|------------------------|
|---------------2-------------|-4--------|-2----------4-----------|
|-5-------------0-0-0-0---0-0-|-2--------|-2----------2--2-2-2-2--|
|-3-3-3-3---3-3---------------|----------|-0--0-0-0-0-------------|

|
| Q E E Q E E W Q E E Q E E


|-----------------------------|----------|------------------------|
|-----------------------------|----------|------------------------|
|-----------------------------|----------|---------------2--------|
|-2-----4---5---7-----5---7---|-9--------|-9--7---5---4------4----|
|-----------------------------|----------|------------------------|
|-----------------------------|----------|------------------------|

Q E E Q S S S S E E E E Q S S S S E E E E H


|--------------------|--------------------|--------------|
|--------------------|--------------------|--------------|
|--------------------|-2---2---2----------|-4---4-2-4----|
|-----5---5----------|-0---0-5-0--0-0-0-0-|-2---2-0-2----|
|-5---3---3--3-3-3-3-|-------3------------|--------------|
|-3------------------|--------------------|--------------|

|
| E E E E Q E E E E E E H E E E E H


|--------------------|--------------------|--------------|
|--------------------|--------------------|--------------|
|--------------------|--------------------|--------------|
|-5-4-2---2--2---2---|-4---4-2-4----------|-2---2-0-2----|
|--------------------|--------------------|--------------|
|--------------------|--------------------|--------------|

Q S S S S Q S S S S Q E E Q S S S S E E E E Q S S S S


|-----------------------|--------------------|---------------------|
|-----------------------|--------------------|---------------------|
|-----------------------|--------------------|-2---2---------------|
|-2----------4----------|-----5---5----------|-0---0-5-4-----------|
|-2----------2--2-2-2-2-|-5---3---3--3-3-3-3-|-------3-2--2-2-2-2--|
|-0--0-0-0-0------------|-3------------------|---------------------|

|
| Q E E Q E E E E E E Q E E E E E E H


|-----------------------|--------------------|---------------------|
|-----------------------|--------------------|---------------------|
|-4--2---0------2-------|--------------------|---------------------|
|------------4------4---|-2-4-5---5--5---5---|-4---4-2-0-----------|
|-----------------------|--------------------|---------------------|
|-----------------------|--------------------|---------------------|

E E E E H Q S S S S Q S S S S Q E E Q S S S S


|--------------|-----------------------|--------------------|
|--------------|-----------------------|--------------------|
|-4---4-2-4----|-----------------------|--------------------|
|-2---2-0-2----|-2----------4----------|-----5---5----------|
|--------------|-2----------2--2-2-2-2-|-5---3---3--3-3-3-3-|
|--------------|-0--0-0-0-0------------|-3------------------|

|
| E E E E H Q E E Q E E E E E E Q E E


|--------------|-----------------------|--------------------|
|--------------|-----------------------|--------------------|
|--------------|-4--2---0------2-------|--------------------|
|-2---2-0-2----|------------4------4---|-5-4-2---2--2---2---|
|--------------|-----------------------|--------------------|
|--------------|-----------------------|--------------------|

E E E E Q S S S S E E E E H Q S S S S Q S S S S


|--------------------|--------------|-----------------------|
|--------------------|--------------|-----------------------|
|-2---2---2----------|-4---4-2-4----|-----------------------|
|-0---0-5-0--0-0-0-0-|-2---2-0-2----|-2----------4----------|
|-------3------------|--------------|-2----------2--2-2-2-2-|
|--------------------|--------------|-0--0-0-0-0------------|

|
| E E E E H E E E E H Q E E Q E E


|--------------------|--------------|-----------------------|
|--------------------|--------------|-----------------------|
|--------------------|--------------|-4--2---0------2-------|
|-4---4-2-4----------|-2---2-0-2----|------------4------4---|
|--------------------|--------------|-----------------------|
|--------------------|--------------|-----------------------|

Q E E Q S S S S E E E E Q S S S S E E E E H +W


|--------------------|--------------------|--------------|--------|
|--------------------|--------------------|--------------|--------|
|--------------------|-2---2--------------|-4---4-2-4----|-(4)----|
|-----5---5----------|-0---0-5-4----------|-2---2-0-2----|-(2)----|
|-5---3---3--3-3-3-3-|-------3-2--2-2-2-2-|--------------|--------|
|-3------------------|--------------------|--------------|--------|

|
| E E E E Q E E E E E E H E E E E H +W


|--------------------|--------------------|--------------|--------|
|--------------------|--------------------|--------------|--------|
|--------------------|--------------------|--------------|--------|
|-2-4-5---5--5---5---|-4---4-2-0----------|-2---2-0-2----|-(2)----|
|--------------------|--------------------|--------------|--------|
|--------------------|--------------------|--------------|--------|

Q170
E S S E S S E S S E S S


|--0--0-0-0-0-0-0-0-0-0-0-0-|
|--0--0-0-0-0-0-0-0-0-0-0-0-|
|--0--0-0-0-0-0-0-0-0-0-0-0-|
|--2--2-2-2-2-2-2-2-2-2-2-2-|
|--2--2-2-2-2-2-2-2-2-2-2-2-|
|--0--0-0-0-0-0-0-0-0-0-0-0-|

|
| +W


|---------------------------|
|---------------------------|
|---------------------------|
|-(2)-----------------------|
|---------------------------|
|---------------------------|

E S S E S S E S S E S S E S S E S S E S S E S S


|-0-0-0-0-0-0-0-0-0-0-0-0-|-0-0-0-0-0-0-0-0-0-0-0-0--|
|-0-0-0-0-0-0-0-0-0-0-0-0-|-0-0-0-0-0-0-0-0-0-0-0-0--|
|-0-0-0-0-0-0-0-0-0-0-0-0-|-0-0-0-0-0-0-0-0-0-0-0-0--|
|-2-2-2-2-2-2-2-2-2-2-2-2-|-2-2-2-2-2-2-2-2-2-2-2-2--|
|-2-2-2-2-2-2-2-2-2-2-2-2-|-2-2-2-2-2-2-2-2-2-2-2-2--|
|-0-0-0-0-0-0-0-0-0-0-0-0-|-0-0-0-0-0-0-0-0-0-0-0-0--|

|
| W W


|-------------------------|--------------------------|
|-------------------------|--------------------------|
|-------------------------|--------------------------|
|-------------------------|--------------------------|
|-------------------------|--------------------------|
|-------------------------|--------------------------|

[5/4] E S S E S S E S S S S E Q [4/4] E S S E S S E S S E S S


|-0-0-0-0-0-0-0-0-0-0--------|-0-0-0-0-0-0-0-0-0-------|
|-0-0-0-0-0-0-0-0-0-0--------|-0-0-0-0-0-0-0-0-0-0-0-0-|
|-0-0-0-0-0-0-0-0-0-0--------|-0-0-0-0-0-0-0-0-0-0-0-0-|
|-2-2-2-2-2-2-2-2-2-2--------|-2-2-2-2-2-2-2-2-2-0-0-0-|
|-2-2-2-2-2-2-2-2-2-2--------|-2-2-2-2-2-2-2-2-2-2-2-2-|
|-0-0-0-0-0-0-0-0-0-0--------|-0-0-0-0-0-0-0-0-0-3-3-3-|

|
| W Q Q Q Q


|----------------------------|-------------------------|
|----------------------------|-------------------------|
|----------------------------|-------------------4-----|
|----------------------------|-2-----2-----2-----------|
|----------------------------|-------------------------|
|----------------------------|-------------------------|

E S S E S S E S S E S S


|-0-0-0-0-0-0-2-2-2-2-2-2-|
|-2-2-2-2-2-2-3-3-3-3-3-3-|
|-2-2-2-2-2-2-4-4-4-4-4-4-|
|-2-2-2-2-2-2-4-4-4-4-4-4-|
|-0-0-0-0-0-0-2-2-2-2-2-2-|
|-------------2-2-2-2-2-2-|

|
| E E E E H


|-------------------------|
|-3-2---------------------|
|-------4-2---4-----------|
|-------------------------|
|-------------------------|
|-------------------------|

E S S E S S E S S E S S E S S E S S E S S E S S


|--------------0-0-0-0-0-0-|-0-0-0-0-0-0-0-0-0-0-0-0--|
|-0--0-0-0-0-0-2-2-2-2-2-2-|-0-0-0-0-0-0-0-0-0-0-0-0--|
|-0--0-0-0-0-0-2-2-2-2-2-2-|-0-0-0-0-0-0-0-0-0-0-0-0--|
|-0--0-0-0-0-0-2-2-2-2-2-2-|-2-2-2-2-2-2-2-2-2-2-2-2--|
|-2--2-2-2-2-2-0-0-0-0-0-0-|-2-2-2-2-2-2-2-2-2-2-2-2--|
|-3--3-3-3-3-3-------------|-0-0-0-0-0-0-0-0-0-0-0-0--|

|
| Q. E E S S E E W


|--------------------------|--------------------------|
|-3--------3---2-3-2-------|--------------------------|
|--------------------4-2---|-4------------------------|
|--------------------------|--------------------------|
|--------------------------|--------------------------|
|--------------------------|--------------------------|

E S S E S S E S S E S S E S S E S S E S S E S S


|-0-0-0-0-0-0-0-0-0-------|-0-0-0-0-0-0-2-2-2-2-2-2-|
|-0-0-0-0-0-0-0-0-0-0-0-0-|-2-2-2-2-2-2-3-3-3-3-3-3-|
|-0-0-0-0-0-0-0-0-0-0-0-0-|-2-2-2-2-2-2-4-4-4-4-4-4-|
|-2-2-2-2-2-2-2-2-2-0-0-0-|-2-2-2-2-2-2-4-4-4-4-4-4-|
|-2-2-2-2-2-2-2-2-2-2-2-2-|-0-0-0-0-0-0-2-2-2-2-2-2-|
|-0-0-0-0-0-0-0-0-0-3-3-3-|-------------2-2-2-2-2-2-|

|
| Q Q Q Q E E E E H


|-------------------------|-------------------------|
|-------------------------|-3-2---------------------|
|-------------------4-----|-------4-2---4-----------|
|-2-----2-----2-----------|-------------------------|
|-------------------------|-------------------------|
|-------------------------|-------------------------|

E S S E S S E S S E S S


|--------------0-0-0-0-0-0--|
|-0--0-0-0-0-0-2-2-2-2-2-2--|
|-0--0-0-0-0-0-2-2-2-2-2-2--|
|-0--0-0-0-0-0-2-2-2-2-2-2--|
|-2--2-2-2-2-2-0-0-0-0-0-0--|
|-3--3-3-3-3-3--------------|

|
| Q. E E S S E E


|---------------------------|
|---------------------------|
|---------------------------|
|-5--------5---4-5-4-2-0----|
|---------------------------|
|---------------------------|

E S S E S S E S S E S S


|-0-0-0-0-0-0-0-0-0-0-0-0-|
|-0-0-0-0-0-0-0-0-0-0-0-0-|
|-0-0-0-0-0-0-0-0-0-0-0-0-|
|-2-2-2-2-2-2-2-2-2-2-2-2-|
|-2-2-2-2-2-2-2-2-2-2-2-2-|
|-0-0-0-0-0-0-0-0-0-0-0-0-|

|
| W


|-------------------------|
|-------------------------|
|-------------------------|
|-2-----------------------|
|-------------------------|
|-------------------------|

E S S E S S E S S E S S E S S E S S E S S E S S


|-2--2-2-2-2-2-2-2-2-2-2-2-|-0-0-0-0-0-0-0-0-0-0-0-0--|
|-3--3-3-3-3-3-3-3-3-3-3-3-|-0-0-0-0-0-0-0-0-0-0-0-0--|
|-2--2-2-2-2-2-2-2-2-2-2-2-|-0-0-0-0-0-0-0-0-0-0-0-0--|
|-0--0-0-0-0-0-0-0-0-0-0-0-|-2-2-2-2-2-2-2-2-2-2-2-2--|
|--------------------------|-2-2-2-2-2-2-2-2-2-2-2-2--|
|--------------------------|-0-0-0-0-0-0-0-0-0-0-0-0--|

|
| H. E S S E E H Q


|-5------------------3-5-3-|-3-2----------------------|
|--------------------------|-------5-----------7------|
|--------------------------|--------------------------|
|--------------------------|--------------------------|
|--------------------------|--------------------------|
|--------------------------|--------------------------|

E S S E S S E S S E S S


|-2--2-2-2-2-2--------------|
|-3--3-3-3-3-3-0-0-0--0-0-0-|
|-4--4-4-4-4-4-0-0-0--0-0-0-|
|-4--4-4-4-4-4-0-0-0--0-0-0-|
|-2--2-2-2-2-2-2-2-2--2-2-2-|
|-2--2-2-2-2-2-3-3-3--3-3-3-|

|
| Q. E Q Q


|---------------------------|
|----------8---8-----10-----|
|-7-------------------------|
|---------------------------|
|---------------------------|
|---------------------------|

E S S E S S E S S E S S E S S E S S E S S E S S


|--2-2-2-2-2-2-2-2-2-2-2-2-|-0--0-0-0-0-0-0-0-0-0-0-0--|
|--3-3-3-3-3-3-3-3-3-3-3-3-|-0--0-0-0-0-0-0-0-0-0-0-0--|
|--2-2-2-2-2-2-2-2-2-2-2-2-|-0--0-0-0-0-0-0-0-0-0-0-0--|
|--0-0-0-0-0-0-0-0-0-0-0-0-|-2--2-2-2-2-2-2-2-2-2-2-2--|
|--------------------------|-2--2-2-2-2-2-2-2-2-2-2-2--|
|--------------------------|-0--0-0-0-0-0-0-0-0-0-0-0--|

|
| E E H Q Q. E Q Q


|--------------------5-----|-3--------3---3-----5------|
|--------7-----------------|---------------------------|
|-11-9---------------------|---------------------------|
|--------------------------|---------------------------|
|--------------------------|---------------------------|
|--------------------------|---------------------------|

E S S E S S E S S E S S E S S E S S E S S E S S W


|-2-2-2-2-2-2-2-2-2-2-2-2-|-2--2-2-2-2-2-0-0-0-0-0-0-|-2----|
|-3-3-3-3-3-3-3-3-3-3-3-3-|-3--3-3-3-3-3-0-0-0-0-0-0-|-3----|
|-4-4-4-4-4-4-4-4-4-4-4-4-|-2--2-2-2-2-2-0-0-0-0-0-0-|-4----|
|-4-4-4-4-4-4-4-4-4-4-4-4-|-0--0-0-0-0-0-2-2-2-2-2-2-|-4----|
|-2-2-2-2-2-2-2-2-2-2-2-2-|--------------2-2-2-2-2-2-|-2----|
|-2-2-2-2-2-2-2-2-2-2-2-2-|--------------0-0-0-0-0-0-|-2----|

|
| E E H Q Q. E Q Q W


|-------------------------|--------------------------|------|
|-7-5---7-----------------|--------------------------|------|
|-------------------6-----|-7--------7---------------|------|
|-------------------------|--------------9-----7-----|-9----|
|-------------------------|--------------------------|------|
|-------------------------|--------------------------|------|

Q185
E S S S S S S S S S S S S S S E S S S S S S S S S S S S S S


|-------------------------------|--------------------------------|
|-------------------------------|--------------------------------|
|-------------------------------|--------------------------------|
|-4-----------------------------|-4------------------------------|
|-4-------------0-------0-------|-4-------------0-------0--------|
|-2-2-2-2---2-2-----2-2-----2-2-|-2-2-2-2---2-2-----2-2-----2-2--|

E S S S S S S S S S S S S S S E S S S S S S S S S S S S S S


|-------------------------------|--------------------------------|
|-------------------------------|--------------------------------|
|-------------------------------|--------------------------------|
|-2-----------------------------|-6-------------2-2-----2-2------|
|-0-0-0-0---0-0-4-------4-------|-4-4-4-4---4-4-----4-4-----4-4--|
|-------------------5-5-----5-5-|--------------------------------|

E S S S S S S S S S S S S S S E S S S S S S S S S S S S S S


|-------------------------------|--------------------------------|
|-------------------------------|--------------------------------|
|-------------------------------|--------------------------------|
|-4-----------------------------|-4------------------------------|
|-4-------------0-------0-------|-4-------------0-------0--------|
|-2-2-2-2---2-2-----2-2-----2-2-|-2-2-2-2---2-2-----2-2-----2-2--|

E S S S S S S S S S S S S S S E S S S S S S Q Q


|-------------------------------|----------------------|
|-------------------------------|----------------------|
|-------------------------------|----------------------|
|-2-----------------------------|-9----------------6---|
|-0-0-0-0---0-0-4-------4-------|-7-7-7-7---7-7-9------|
|-------------------5-5-----5-5-|---------------7--9---|

E S S S S S S S S S S S S S S E S S S S S S S S S S S S S S


|-------------------------------|--------------------------------|
|-------------------------------|--------------------------------|
|-------------------------------|--------------------------------|
|-4-----------------------------|-4------------------------------|
|-4-------------0-------0-------|-4-------------0-------0--------|
|-2-2-2-2---2-2-----2-2-----2-2-|-2-2-2-2---2-2-----2-2-----2-2--|

E S S S S S S S S S S S S S S E S S S S S S S S S S S S S S


|-------------------------------|--------------------------------|
|-------------------------------|--------------------------------|
|-------------------------------|--------------------------------|
|-2-----------------------------|-6-------------2-2-----2-2------|
|-0-0-0-0---0-0-4-------4-------|-4-4-4-4---4-4-----4-4-----4-4--|
|-------------------5-5-----5-5-|--------------------------------|

E S S S S S S S S S S S S S S E S S S S S S S S S S S S S S


|-------------------------------|--------------------------------|
|-------------------------------|--------------------------------|
|-------------------------------|--------------------------------|
|-4-----------------------------|-4------------------------------|
|-4-------------0-------0-------|-4-------------0-------0--------|
|-2-2-2-2---2-2-----2-2-----2-2-|-2-2-2-2---2-2-----2-2-----2-2--|

E S S S S S S S S S S S S S S E S S S S S S Q Q


|-------------------------------|----------------------|
|-------------------------------|----------------------|
|-------------------------------|----------------------|
|-2-----------------------------|-9----------------6---|
|-0-0-0-0---0-0-4-------4-------|-7-7-7-7---7-7-9------|
|-------------------5-5-----5-5-|---------------7--9---|

E S S S S S S S S S S S S S S E S S S S S S S S S S S S S S


|----------------------------------|-----------------------------------|
|----------------------------------|-----------------------------------|
|----------------------------------|-----------------------------------|
|-4--------------------------------|-4---------------------------------|
|-4----------------0-------0-------|-4--------------0--------0---------|
|-2-2-2--2-----2-2-----2-2-----2-2-|-2-2-2-2---2-2------2-2-------2-2--|

|
| Gtr II
| Q +S E. Q Q H Q E E


|-----------9------9-------7-------|-9---------------------------------|
|-7-----(7)------------------------|---------------10-------10---12----|
|----------------------------------|-----------------------------------|
|----------------------------------|-----------------------------------|
|----------------------------------|-----------------------------------|
|----------------------------------|-----------------------------------|

E S S S S S S S S S S S S S S


|----------------------------------|
|----------------------------------|
|----------------------------------|

To play the this songs, including Iron by Ensiferum by ukulele, the most crucial basic ukulele chords to learn are C chord, D chord, G chord, and Em chord.
These set you up to play a ton of songs, and each of them is easy to learn.

Gravatar Image
Like to play Ukulele and Sudoku Game

Leave a Reply

Your email address will not be published. Required fields are marked *