Instinct by As Blood Runs Black Ukulele Chords

Posted on

If you are looking for Instinct ukulele chords, you have come to the right place.
You can play versatile instrument Instinct using ukulele or guitar.
This song by As Blood Runs Black can also be played by that instruments.
=

Instinct chords has rhythm and included in Instinct (2011) album.
You can also get other musical genres, including jazz ukulele chords, country music ukulele chords, pop ukulele chords, world music ukulele chords, and rock ukulele chords here.

Instinct by As Blood Runs Black Ukulele Chords


Tuning: CGCFAD (Drop C / 1 step down from Drop D)
joshuaoliveira@hotmail.com


[Riff 1a] - [00:01] - [01:02----------------------------------------| -
- ------------------------------------------------------------------|
- ------------------------------------------------------------------|
- ------------------------------------------------------------------|
- -------7-------------------------------7--------------------------|
- -5-----------5-----8-----5---8---5-----------5-----8-----5---8----|
- ---8-8---8-8---8-8---8-8---8---8---8-8---8-8---8-8---8-7---7---3--|

PM … … … … . . … … … … . .


- -----------------------------------------------------------------|
- -----------------------------------------------------------------|
- -----------------------------------------------------------------|
- -------7-----------3---------3---------7-----------------5h7p5p0-|
- -5-----------5-----------5-------5-----------5/8---8---8---------|
- ---3-3---3-3---3-3---3-3---3---3---3-3---3-3-----7---7-----------|

PM … … … … . . … … . .

[Riff 1b] – [00:01] – [01:09]


- -----------------------------------------------------------------|
- -----------------------------------------------------------------|
- -----------------------------------------------------------------|
- -8~--------------------------88888---------------\\\\\\\-|
- -8~--------------------------88888---------------\\\\\\\-|
- -8~--------------------------88888---------------\\\\\\\-|
- -----------------------------------------------------------------|
- -----------------------------------------------------------------|
- -----------------------------------------------------------------|
- -3~------------------------------0~--------------3~------7~------|
- -3~------------------------------0~--------------3~------7~------|
- -3~------------------------------0~--------------3~------7~------|

[Riff 2] – [01:09] – [00:27]


- ------------------------------------------------------------------|
- ------------------------------------------------------------------|
- ------------------------------------------------------------------|
- ------------------------------------------------------------------|
- -5-5-5-5-5-5-5-5-8-8-8-8-7-7-7-7-5-5-5-5-5-5-5-5-8-8-8-8-10101010-|
- -8-8-8-8-8-8-8-8-8-8-8-8-8-8-8-8-8-8-8-8-8-8-8-8-7-7-7-7-7-7-7-7--|
- ------------------------------------------------------------------|
- ------------------------------------------------------------------|
- ------------------------------------------------------------------|
- ------------------------------------------------------------------|
- -5-5-5-5-5-5-5-5-8-8-8-8-7-7-7-7-5-5-5-5-5-5-5-5-8-8-8-8-10101010-|
- -3-3-3-3-3-3-3-3-3-3-3-3-3-3-3-3-3-3-3-3-3-3-3-3-7-7-7-7-8-8-8-8--|
- ------------------------------------------------------------------|
- ------------------------------------------------------------------|
- ------------------------------------------------------------------|
- ------------------------------------------------------------------|
- -5-5-5-5-5-5-5-5-8-8-8-8-7-7-7-7-5-5-5-5-5-5-5-5-8-8-8-8-10101010-|
- -8-8-8-8-8-8-8-8-8-8-8-8-8-8-8-8-8-8-8-8-8-8-8-8-7-7-7-7-7-7-7-7--|
- -----------------------------------------------------------------|
- -----------------------------------------------------------------|
- -----------------------------------------------------------------|
- ---------------------------------------------------------5h7p5p0-|
- -5-5-5-5-5-5-5-5-8-8-8-8-7-7-7-7-5-5-5-5-5-5-5-5-5/8---8---------|
- -3-3-3-3-3-3-3-3-3-3-3-3-3-3-3-3-3-3-3-3-3-3-3-3-----7-----------|

PM .


----------------------------------------------------------------------------

[Riff 4] – [00:27] – [00:48]


- -----------------------------------------------------------------|
- -----------------------------------------------------------------|
- -----------------------------------------------------------------|
- -----------------------------------------------------------------|
- -0-0---0-----0-------0-0-0-0-0-0-0-0---0-----0-------0-----0-----|
- -0-0---0-----0-------0-0-0-0-0-0-0-0---0-----0-------0-----0-----|

PM ………………………………………………………


- -----------------------------------------------------------------|
- -----------------------------------------------------------------|
- -----------------------------------------------------------------|
- -----------------------------------------------------------------|
- -0-0---0-----0-------0-0-0-0-0-0---------------------------------|
- -0-0---0-----0-------0-0-0-0-0-0---0-0-0-0-0-0-0-----------------|

PM ………………………….


- -----------------------------------------------------------------|
- -----------------------------------------------------------------|
- -----------------------------------------------------------------|
- -----------------------------------------------------------------|
- -0-0---0-----0-------0-0-0-0-0-0-0-0---0-----0-------0-----0-----|
- -0-0---0-----0-------0-0-0-0-0-0-0-0---0-----0-------0-----0-----|

PM ………………………………………………………


- -----------------------------------------------------------------|
- -----------------------------------------------------------------|
- -----------------------------------------------------------------|
- ---------------------------------------------------------5h7p5p0-|
- -0-0---0-----0-------0-0-0-0-0-0-----------------5/8---8---------|
- -0-0---0-----0-------0-0-0-0-0-0---0-0-0-0-0-0-0-----7-----------|

PM …………………………. .


----------------------------------------------------------------------------

[Riff 5] – [00:48] – [01:02]


- -----------------------------------------------------------------|
- -----------------------------------------------------------------|
- -----------------------------------------------------------------|
- -----------------------------------------------------------------|
- -8-8---8-----8-------8-8-8-8-8-8-8-8---8-----8-------7-----7-----|
- -8-8---8-----8-------8-8-8-8-8-8-8-8---8-----8-------7-----7-----|

PM ………………………………………………………


- -----------------------------------------------------------------|
- -----------------------------------------------------------------|
- -----------------------------------------------------------------|
- -----------------------------------------------------------------|
- -0-0---0-----0-------0-0-0-0-0-0---------------------------------|
- -0-0---0-----0-------0-0-0-0-0-0---0-0-0-0-0-0-0-----------------|

PM ………………………….


- -----------------------------------------------------------------|
- -----------------------------------------------------------------|
- -----------------------------------------------------------------|
- -----------------------------------------------------------------|
- -8-8---8-----8-------8-8-8-8-8-8-8-8---8-----8-------7-----7-----|
- -8-8---8-----8-------8-8-8-8-8-8-8-8---8-----8-------7-----7-----|

PM ………………………………………………………


- -----------------------------------------------------------------|
- -----------------------------------------------------------------|
- -----------------------------------------------------------------|
- ---------------------------------------------------------5h7p5p0-|
- -0-0---0-----0-------0-0-0-0-0-0-----------------5/8---8---------|
- -0-0---0-----0-------0-0-0-0-0-0---0-0-0-0-0-0-0-----7-----------|

PM …………………………. .


----------------------------------------------------------------------------

[Riff 2] – [01:02] – [01:19]

[Riff 6] – [01:02] – [01:19]
T T T


- ---------------------------------------------------------5h6-17-6p5---|
- ---------5br---------5h6-22-6p5-------5h6-15/1715-6p5h6------------6-|
- -------7-------7---7------------7---7---------------------------------|
- -----7-----------8----------------8-----------------------------------|
- -5h8------------------------------------------------------------------|
- ----------------------------------------------------------------------|

T T T


- ---------------------------------------------------------5h6-17/1817---|
- ---------5br---------5h6-22-6p5-------5h6-15/1715-6p5h6--------------6-|
- -------7-------7---7------------7---7-----------------------------------|
- -----7-----------8----------------8-------------------------------------|
- -5-8--------------------------------------------------------------------|
- ------------------------------------------------------------------------|

PM ……. … …

T T T


- ---------------------------------------------------------5h6-17-6p5---|
- ---------5br---------5h6-22-6p5-------5h6-15/1715-6p5h6------------6-|
- -------7-------7---7------------7---7---------------------------------|
- -----7-----------8----------------8-----------------------------------|
- -5h8------------------------------------------------------------------|
- ----------------------------------------------------------------------|

T T


- -----------------------------------------------------|
- ---------5br---------5h6-22-6p5-------5h6-15/1715-6-|
- -------7-------7---7------------7---7----------------|
- -----7-----------8----------------8------------------|
- -5-8-------------------------------------------------|
- -----------------------------------------------------|

PM ……. … …


- -18p17p15----------------------------|
- ----------18p17p15-------------------|
- -------------------17p15p14----------|
- ----------------------------15p14p12-|
- -------------------------------------|
- -------------------------------------|
----------------------------------------------------------------------------

[Riff 1a] – [01:19] – [01:45] –

[Riff 7] – [01:19] – [01:37]


- ---------------------------------------------------------|
- ---------------------------------------------------------|
- ---------------------------------------------------------|
- -12~-------------14br-12-14~---------12~-----/14---/15---|
- ---------------------------------------------------------|
- ---------------------------------------------------------|
- ------------------------------------------------------------------|
- ------------------------------------------------------------------|
- ------------------------------------------------------------------|
- ------------------------------------------------------------------|
- -12~-------------12br-10-12~--------13p12p10-12p10p8-10p8p7-8p7p5-|
- ------------------------------------------------------------------|
- --------------------------------------------18p17-------------|
- ---------------------------------17br-15-17-------18p15-------|
- --------------------------------------------------------17p14-|
- -12~-------------14br-12-14~----------------------------------|
- --------------------------------------------------------------|
- --------------------------------------------------------------|

– Harmony parts together. ^ v


- ---------------------------------15br-13-15-------------------|
- --------------------------------------------------------------|
- -10~-------------12br-10-12-----------------------------------|
- --------------------------------------------------------------|
- --------------------------------------------------------------|
- --------------------------------------------------------------|
- ------------------------------------------------------------------------|
- ------------------------------------------------------------------------|
- -----------------12br------------------------9h10p9-------------9h10h12-|
- -15~-------------------------14br--------12-------------------10--------|
- ----------------------------------------------------12p8-10h12----------|
- ------------------------------------------------------------------------|

– Harmony parts together. ^ v


- ------------------------------------------------------------------------|
- -----------------11br---------------------------------------------------|
- -----------------------------12br--------10-----------------------------|
- ------------------------------------------------------------------------|
- ------------------------------------------------------------------------|
- ------------------------------------------------------------------------|
- ------------------|
- -10~--------------|
- ------------------|
- ------------------|
- ------------------|
- ------------------|
----------------------------------------------------------------------------
[Riff 8] - [01:45] - [02:12-----------------------------------------| -
- ------------------------------------------------------------------|
- ------------------------------------------------------------------|
- ------------------------------------------------------------------|
- ------------------------------------------------------------------|
- -5-5-5-5-5-5-5-5-5-5-5-5-101010105-5-5-5-5-5-5-5-8-8-8-8-10101010-|
- -8-8-8-8-8-8-8-8-8-8-8-8-8-8-8-8-8-8-8-8-8-8-8-8-7-7-7-7-8-8-8-8--|
- ------------------------------------------------------------------|
- ------------------------------------------------------------------|
- ------------------------------------------------------------------|
- ------------------------------------------------------------------|
- -5-5-5-5-5-5-5-5-5-5-5-5-101010105-5-5-5-5-5-5-5-8-8-8-8-10101010-|
- -3-3-3-3-3-3-3-3-3-3-3-3-8-8-8-8-3-3-3-3-3-3-3-3-7-7-7-7-8-8-8-8--|

[Riff 9] – [01:53] – [02:03]


- -----------------------------|
- -----------------------------|
- -10p9p7-9p7p5--------9h10h12-|
- --------------7h8h10---------|
- -----------------------------|
- -----------------------------|
- -----------------------------------------------------------------|
- -----------------------------------------------------------------|
- -----------------------------------------------------------------|
- -14br--------12------------------14br--------12------/15---/17---|
- -----------------------------------------------------------------|
- -----------------------------------------------------------------|

– Harmony parts together. ^ v


- -----------------------------------------------------------------|
- -----------------------------------------------------------------|
- -14br----------------------------14br----------------/14---/15---|
- -----------------------------------------------------------------|
- -----------------------------------------------------------------|
- -----------------------------------------------------------------|
- ---------------------------------------------------------------|
- ---------------------------------------------------------------|
- ---------------------------------------------------5-----------|
- ---------------14br--------------------------5h7h8---8p7-5h7h8-|
- -12---------------------13-12----------5h7h8-------------------|
- ---------------------------------------------------------------|

– Harmony parts together. ^ v


- -----------------------------------------------------------------|
- -----------------------------------------------------------------|
- ---------------14br----------------------------------------------|
- -12---------------------17-15------------------------------------|
- -----------------------------------------------------------------|
- -----------------------------------------------------------------|
- ------------------|
- ------------------|
- -7~---------------|
- ------------------|
- ------------------|
- ------------------|
----------------------------------------------------------------------------
[Riff 10] - [02:12] - [03:48----------------------------------------| - [5.5x]
- ------------------------------------------------------------------|
- ------------------------------------------------------------------|
- ------------------------------------------------------------------|
- ------------------------------------------------------------------|
- -5-5---5-----5-------5-5-5-5-5-5-5-5---5-----5-------5-----5------|
- -8-8---8-----8-------8-8-8-8-8-8-8-8---8-----8-------8-----8------|

PM ………………………………………………………


- -----------------------------------------------------------------|
- -----------------------------------------------------------------|
- -----------------------------------------------------------------|
- -----------------------------------------------------------------|
- -0-0---0-----0-------0-0-0-0-0-0---------------------------------|
- -0-0---0-----0-------0-0-0-0-0-0---0-0-0-0-0-0-0-----------------|

PM ………………………….


- -----------------------------------------------------------------|
- -----------------------------------------------------------------|
- -----------------------------------------------------------------|
- -----------------------------------------------------------------|
- -5-5---5-----5-------5-5-5-5-5-5-5-5---5-----5-------10----10----|
- -8-8---8-----8-------8-8-8-8-8-8-8-8---8-----8-------7-----7-----|

PM ………………………………………………………


- -----------------------------------------------------------------|
- -----------------------------------------------------------------|
- -----------------------------------------------------------------|
- -----------------------------------------------------------------|
- -0-0---0-----0-------0-0-0-0-0-0---------------------------------|
- -0-0---0-----0-------0-0-0-0-0-0---0-0-0-0-0-0-0-----------------|

PM ………………………….


----------------------------------------------------------------------------

[Riff 11a] – [02:29] – [03:48] –
T T T


- ---------------------------------------------------------5h6-17-6p5---|
- ---------5br---------5h6-22-6p5-------5h6-15/1715-6p5h6------------6-|
- -------7-------7---7------------7---7---------------------------------|
- -----7-----------8----------------8-----------------------------------|
- -5h8------------------------------------------------------------------|
- ----------------------------------------------------------------------|

T T


- -----------------------------------------------------|
- ---------5br---------5h6-22-6p5-------5h6-15/1715-6-|
- -------7-------7---7------------7---7----------------|
- -----7-----------8----------------8------------------|
- -5-8-------------------------------------------------|
- -----------------------------------------------------|

PM ……. … …


- --------------13h17p13--------|-18p17p15----------------------------|
- ------------15--------15------|----------18p17p15-------------------|
- -------14h15------------15p14-|-------------------17p15p14----------|
- -----15-----------------------|----------------------------15p14p12-|
- -17---------------------------|-------------------------------------|
- ------------------------------|-------------------------------------|

[Riff 12b] – [02:33] – [03:48] –
T T


- -----------------------------------------------------|
- -----------------------------------------------------|
- -----------------------------------------------------|
- ---------2br---------2h3-19-3p2-------2h3-12/1412-3-|
- -------5-------5-1-5------------5-1-5----------------|
- -0-3-7-----------------------------------------------|

PM ……. … …


----------------------------------------------------------------------------

[Symbols]

PM… Palm Mute notes with (…) under them
\\ Pick Slide
~ Let Ring
h Hammer On
p Pull Off
b Bend
r Release
/ Slide Up
Slide Down

🙂

To play the most songs, including Instinct by As Blood Runs Black by ukulele, the most important basic ukulele chords to learn are C chord, D chord, G chord, and Em chord.
These set you up to play a a lot of songs, and each of them is easy to learn.

Gravatar Image
Like to play Ukulele and Sudoku Game

Leave a Reply

Your email address will not be published. Required fields are marked *