In Your Face by Children of Bodom Ukulele Chords

Posted on

If you are looking for In Your Face ukulele chords, you’ve visit to the right site.
You can play versatile instrument In Your Face using ukulele or guitar.
This song by Children of Bodom can also be played by that instruments.
=

In Your Face chords has rhythm and included in Are You Dead Yet? (2005) album.
You can also get another musical style, including jazz ukulele chords, country music ukulele chords, pop ukulele chords, world music ukulele chords, and rock ukulele chords here.

In Your Face by Children of Bodom Ukulele Chords


Children Of Bodom
Tuning: CGCFAD
Legend:
.palm mute
bbend up
pinch harmonic (guitar squeel)

READ FIRST
I tabbed this out by ear. I cannot stress enough the importance of the tuning and palm muting.
Thank you.

Intro:G1


D|----------------|----------------|
A|----------------|----------------|
F|----------------|----------------|
C|----------------|----------------|
G|-0000-000000-00-|-0000-0-0-00000-|
C|-0000-000000-00-|-0000-0-0-00000-| x2

…. …… .. …. . . …..


----------------------------------------------------------------------------

Drums come In


D|----------------|----------------|
A|----------------|----------------|
F|----------------|----------------|
C|----------------|----------------|
G|-0000-000000-00-|-0000-0-0-00000-|
C|-0000-000000-00-|-0000-0-0-00000-| x2

…. …… .. …. . . …..


----------------------------------------------------------------------------

GO!

[G1+G2]


D|---------------|----------------|
A|---------------|----------------|
F|---------------|----------------|
C|---------------|----------------|
G|-0000-00000-00-|-0000-0-0-00000-|
C|-0000-00000-00-|-0000-0-0-00000-| x2

…. ….. .. …. . . …..


----------------------------------------------------------------------------

Synth Comes In

[G1+G2]


D|----------------|----------------|
A|----------------|----------------|
F|----------------|----------------|
C|----------------|----------------|
G|-0000-000000-00-|-0000-0-0-00000-|
C|-0000-000000-00-|-0000-0-0-00000-| x2

…. …… .. …. . . …..


----------------------------------------------------------------------------


D|----------------|----------------|---------------|----------------|
A|----------------|----------------|---------------|----------------|
F|----------------|----------------|---------------|----------------|
C|----------------|----------------|---------------|----------------|
G|-0000-000000-00-|-0000-0-0-00000-|-0000-00000-00-|-0000-0-0-00000-|
C|-0000-000000-00-|-0000-0-0-00000-|-0000-00000-00-|-0000-0-0-00000-|

…. …… .. …. . . ….. …. ….. .. …. . . …..


D|----------------|----------------|---------------|----------------|
A|----------------|----------------|---------------|----------------|
F|----------------|----------------|---------------|----------------|
C|-0-------7------|-8------10------|-0------7------|-8------1-------|
G|-0-------7------|-8------10------|-0------7------|-8------1-------|
C|-0-------7------|-8------10------|-0------7------|-8------1-------|
----------------------------------------------------------------------------

BREAKDOWN


D|-------------------|---------|----------|
A|-------------------|---------|----------|
F|-------------------|---------|-------47-|
C|-------------------|---------|-----36---|
G|-6-3-5-0-6-3-55-00-|-6-3-5-2-|---25-----|
C|-6-3-5-0-6-3-55-00-|-6-3-5-2-|-36-------|

. . . . . . .. .. . . . .


D|-------------------|---------|------------|
A|-------------------|---------|------------|
F|-------------------|---------|-------7-10-|
C|-------------------|---------|-----69-----|
G|-6-3-5-0-6-3-55-00-|-6-3-5-2-|---58-------|
C|-6-3-5-0-6-3-55-00-|-6-3-5-2-|-69---------|

. . . . . . .. .. . . . .


----------------------------------------------------------------------------

BREAKDOWN CONTINUED

[G1+G2]


D|-------------------|---------|-----|
A|-------------------|---------|-----|
F|-------------------|---------|-----|
C|-------------------|---------|-----|
G|-6-3-5-0-6-3----00-|-6-3-5-2-|-0-0-|
C|-6-3-5-0-6-3-5b-00-|-6-3-5-2-|-0-0-|

. . . . . . .. . . . . . .


----------------------------------------------------------------------------

BREAKDOWN CONTINUED


D|-------------------|---------|----------|
A|-------------------|---------|----------|
F|-------------------|---------|-------47-|
C|-------------------|---------|-----36---|
G|-6-3-5-0-6-3-55-00-|-6-3-5-2-|---25-----|
C|-6-3-5-0-6-3-55-00-|-6-3-5-2-|-36-------|

. . . . . . .. .. . . . .


D|-------------------|---------|------------|
A|-------------------|---------|------------|
F|-------------------|---------|-------7-10-|
C|-------------------|---------|-----69-----|
G|-6-3-5-0-6-3-55-00-|-6-3-5-2-|---58-------|
C|-6-3-5-0-6-3-55-00-|-6-3-5-2-|-69---------|

. . . . . . .. .. . . . .


----------------------------------------------------------------------------

BREAKDOWN CONTINUED

[G1+G2]


D|-------------------|---------|-----|
A|-------------------|---------|-----|
F|-------------------|---------|-----|
C|-------------------|---------|-----|
G|-6-3-5-0-6-3----00-|-6-3-5-2-|-0-0-|
C|-6-3-5-0-6-3-5b-00-|-6-3-5-2-|-0-0-|

. . . . . . .. . . . . . .


----------------------------------------------------------------------------

D|—–|
A|—–|
F|—–|
C|-3b-|
G|—–|
C|—–|

D|—–|
A|—–|
F|-7b-|
C|—–|
G|—–|
C|—–|


----------------------------------------------------------------------------

VERSE


D|------------------|------------------|-------------------|----------------------|
A|------------------|------------------|-------------------|----------------------|
F|------------------|-------------5-4~-|-------------------|----------------------|
C|------------------|-------------3-2~-|-------------------|-7-------7---10-9-10~-|
G|-5-------5---535~-|-5-------5--------|-5-------5---3010~-|----------------------|
C|--000-000-000-----|--000-000-000-----|--000-000-000------|--777-777-777---------|

… … … … … … … … … … … …


D|------------------|------------------|-------------------|-------------------|
A|------------------|------------------|-------------------|-------------------|
F|------------------|-------------7-5~-|-------------------|--------------979~-|
C|------------------|-------------5-3~-|-------------------|-7-------10--------|
G|-5-------5---878~-|-5-------5--------|-5-------5---3010~-|-------------------|
C|--000-000-000-----|--000-000-000-----|--000-000-000------|--777-777--777-----|

… … … … … … … … … … … …


D|------------------|-------------------|-------------------|----------------------|
A|------------------|-------------------|-------------------|----------------------|
F|------------------|-------------------|-------------------|----------------------|
C|------------------|------------7-6-5~-|-------------------|-7-------7---10-9-10~-|
G|-5-------5---535~-|-5-------55-5-4-3~-|-5-------5---3010~-|----------------------|
C|--000-000-000-----|--000-000----------|--000-000-000------|--777-777-777---------|

… … … … … … … … … … …


D|------------------|-------------------|-------------------|-------------------|
A|------------------|-------------------|-------------------|-------------------|
F|------------------|-------------------|-------------------|--------------979~-|
C|------------------|------------3-2-1~-|-------------------|-7-------10--------|
G|-5-------5---878~-|-5-------55-5-4-3~-|-5-------5---3010~-|-------------------|
C|--000-000-000-----|--000-000----------|--000-000-000------|--777-777--777-----|

… … … … … … … … … … …


-------------------------------------------------------------------------------

BRIDGE TO CHORUS


D|-----------|-----------|-------------------|-----------|-----------|------------------|
A|-----------|-----------|-------------------|-----------|-----------|------------------|
F|-----------|-----------|-------------------|-----------|-----------|------------------|
C|-----------|-----------|-------------------|-----------|-----------|-------------8-7~-|
G|--------5--|--5-7-8----|-5-7-8---8-10-8753-|--------5--|--5-7-8----|-5-7-8-------8-7~-|
C|-88-10-8-8-|-8-8-8-8-8-|--0-0-0-0-0--0-----|-88-10-8-8-|-8-8-8-8-8-|--0-0-0-0023-8-7~-|

. . . . . . . . . ….


D|--------|------------|------------------------|--------------------|--------------------|
A|--------|------------|------------------------|--------------------|--------------------|
F|--------|------------|------------------------|--------------------|--------------------|
C|--------|------------|------------------------|--------------------|---------------8-7~-|
G|---7-8--|--8-10-7----|-8-10-7---12-13-12-10-8-|-5-7-8---8-10-12----|-8-10-12-------8-7~-|
C|-88-8-8-|-8-8--8-8-8-|--0--0-0-0--0--0--------|--8-8-8-8-8--8--8-8-|--0--0--0-0023-8-7~-|

. . . . . . . . . ….


---------------------------------------------------------------------------------

Repeat All of Breakdown


---------------------------------------------------------------------------------

Repeat Verse


---------------------------------------------------------------------------------

Repeat Intro


---------------------------------------------------------------------------------

Chorus (same as Intro)


---------------------------------------------------------------------------------

I don’t know the solo, so after the chorus, do bridge, breakdown, intro.

I’m not sure how many times you do each measure but i think its all correct,
listen to the song and you’ll have better judgemetn

To play the this songs, including In Your Face by Children of Bodom by ukulele, the most crucial basic ukulele chords to learn are C chord, D chord, G chord, and Em chord.
These set you up to play a many of songs, and each of them is easy to master.

Gravatar Image
Like to play Ukulele and Sudoku Game

Leave a Reply

Your email address will not be published. Required fields are marked *