I Stay Away by Alice in Chains Ukulele Chords

Posted on

If you are searching for I Stay Away ukulele chords, you’ve visit to the best place.
You can play versatile instrument I Stay Away using ukulele or guitar.
This song by Alice in Chains can also be played by that instruments.
=

I Stay Away chords has rhythm and included in Jar of Flies / Facelift / Dirt (2001) album.
You can also find other musical style, including jazz ukulele chords, country music ukulele chords, pop ukulele chords, world music ukulele chords, and rock ukulele chords here.

I Stay Away by Alice in Chains Ukulele Chords


Album : Jar Of Flies
Song : I Stay Away

Tuning : Written in Standard Flat. Eb Ab Db Gb Bb Eb, but you can play it standard just fine.

First off, I have taken bits and pieces from other tabs, this is not my work,
except for fixing a few things i noticed. The second guitar is only included
for the solo. For a more complete version, get the power tab one. This just
has all parts of the song for people who want the online version.

Everything played clean except solo.

Intro


e]-0h2-2-2-0---3--------------------------------|
B]-3---3-3-3---3--------------------------------|
G]-2---2-2-2---5-----0-----0--------------------|
D]---------0-0-----2-----0-------0-----0--------|
A]---------0-0---3-----2-------2-----0-------00-|
E]---------0-0---------------3-----3-----5p4-00-|

Verse


e]-0h2-2-2-0---0---0-0-3------------------------------------|
B]-3---3-3-3---3---3-3-3------------------------------------|
G]-2---2-2-2---0---0-0-0---------0-----0--------------------|
D]-0-------0-0-2---2-2-2-------2-----0-------0-----0--------|
A]-0-------0-0-3---3-3-3-0-2-3-----2-------2-----0-------00-|
E]-0-------0-0---------------------------3-----3-----5p4-00-|

Chorus


||----------------------------------------|
||o---------------------------------------|
||----------------------------------------|
||--5b7-5-3-------------------------------|
||o---------5-3b4-3p0---------------------|
||--------------------3b4(3)b5(3)r-3--|

4x


|---------------------------------------------||
|--------------------------------------------o||
|---------------------------------------------||
|-5b7(5)r(5)p3p0-0--------------------------||
|--------------------3p0---------------------o||
|------------------------3b4(3)b5(3)r-3---||

Bridge


|-2-2-------2---0-0-0-|--2--0-0---3-3-----3-0-|
|-3-3-3-3-3-3-3-3-3-3-|--3--3-3-3-3-3---3-3-3-|
|-2-2-2-2-2-2-2-2-2-2-|--2--2-2-2-5-5-5---5---|
|-0---0-0-0---0-0-0-0-|--0--0-0-0-0-0-0---0---|
|-0---0-0-0---0-0-0-0-|--0------------0-------|
|-0---0-0-0---0-0-0-0-|--0------------0-------|

|
| Gtr III


|---------------------|-----------------------|
|---------------------|-----------------------|
|-7-------------------|-(7)-------------------|
|-7-------------------|-(7)-------------------|
|-5-------------------|-(5)-------------------|
|---------------------|-----------------------|


|-1-1-1-(1)------|------------2--2-3-3-2-0-0-|
|-3-3-3-(3)------|-3-------3--3--3-3-3-3-3-3-|
|-3-3-3-(3)------|-3-x-5-2-2--2--2-2-2-2-2-2-|
|-3-3-3-(3)------|-3-x-5-0-0--0--0-0-0-0-0-0-|
|-1-1-1-(1)------|-1-x-3-0-0-----------------|
|----------------|---------0-----------------|

|


|----------------|---------------------------|
|----------------|---------------------------|
|-3-3-3-(3)------|-3---5---7-(7)-------------|
|-3-3-3-(3)------|-3---5---7-(7)-------------|
|-1-1-1-(1)------|-1---3---5-(5)-------------|
|----------------|---------------------------|


|---0-----0-0-----0-----|--3----3---3-0-----------|-1-1-1--(1)-1-(1)----|
|-3-3-3-3-3-3-3-3---3-3-|--3--3-3---3-3-3-3---3---|-3-3-3--(3)-3-(3)----|
|-2-2-2-2-----2-2---2-2-|--5----5---5---2-2-5-2---|-3-3-3--(3)-3-(3)----|
|-0---0-0-------0---0-0-|--0----0-0-0---0-0-0-0-0-|-3-3-3--(3)-3-(3)----|
|-0---0-0-------0-------|--0--------0-----------0-|-1-1-1--(1)-1-(1)----|
|-0---0-0-------0-------|--0--------0-------------|---------------------|

|


|-----------------------|-------------------------|---------------------|
|-----------------------|-------------------------|---------------------|
|-7---------------------|-(7)---------------------|-3-3-3---------------|
|-7---------------------|-(7)---------------------|-3-3-3---------------|
|-5---------------------|-(5)---------------------|-1-1-1---------------|
|-----------------------|-------------------------|---------------------|

Solo

GTR I


|---------------------------------|------------------|
|---------------------------------|------------------|
|-----0-----0----2----------------|------------------|
|---0-----0---0-----3p0-2---3-5-5-|-7~~~~~~~~~~~~~~~-|
|-1-----3-------------------------|------------------|
|---------------------------------|------------------|

GTR II


|---------------------------------|-2-2-2-0-0---3--|
|-3-----5-----3-(3)-------3-3-5-5-|-3-3-3-3-3---3--|
|-3-----5-----2-(2)-------0-2-5-5-|-2-2-2-0-0---0--|
|-3-----5-----0-(0)-------2-3-5-5-|-0-0-0-2-2---2--|
|-1-----3-------------------------|-------3-3---3--|
|---------------------------------|----------------|

GTR I


|----------------------------------------|---------------------------------|
|----------------------------------------|---------------------------------|
|-------------------------5---5-7b9(7)-|-7r(7)p5-----5-(5)---------|
|-7~~~~~~~~~~~~~~~~~~~~~~---7------------|-----------------7---------------|
|----------------------------------------|---------------------------------|
|----------------------------------------|---------------------------------|

GTR II


|----------------------------------------|-------2-----------3------3------|
|----------------------------------------|-3-----3-----------3------3-3-3--|
|-----0-----0----------------------------|-0h2-2-2-------0---0------0-0-0--|
|---0-----0-------0-----0----------------|-0---0-0-------0---2------2------|
|-3-----2-------0-----0-------0-------0--|-0-------------0---3------3------|
|-------------3-----3-----5-4-0-------0--|-0-------------------------------|

GTR I


|--------------------------------------------------|
|--------------------------------------------------|
|-5------------------------------------------------|
|---7-6-5-3-5b6(5)r(5)-3p0-3---(3)-------0---|
|----------------------------------------3h5p3---3-|
|--------------------------------------------------|

GTR II


|--------------------------------------------------|
|--------------------------------------------------|
|-----0-----------0--------------------------------|
|---0-----0---------------0--------0---------------|
|-3-----2--------------0---------0-----------0-0---|
|--------------------3-------3--------5--4---0-0---|

GTR I


|-------------------------------------------------------------------|
|-------------------------------------------------------------------|
|-------------------------------------------------------------------|
|---------3h5p3h5b6(5)r(5)p3p0-3b4(3)r-0------------------------|
|-5p3h5--------------------------------------3h5p3------------------|
|--------------------------------------------------3h5b7(5)r(5)---|

GTR II


|-------2-2---------------3-----------------------------------------|
|-3-----3-3---------------3-----------------------------------------|
|-2-----2-2---------------0-----------------------------------------|
|-0-----0-0---------------2-----------------------------------------|
|-0-------------0---------3------------------------------------0--2-|
|-0-------------0---------------------------------------------------|

GTR I


|------------------------------------------------------|
|------------------------------------------------------|
|----------------------------------------------5-5-5-5-|
|---------------------5b7(5)---(5)r(5)-----------|
|------------------------------------------------------|
|-5-3pb5r(3)-3pb5r(3)----------------------------------|

GTR II


|------------------------------------------------------|
|------------------------------------------------------|
|------------0-------------0---------------------------|
|---0-----------------0-------------0--------0---------|
|-3----------------2-------------0--------0--------0-0-|
|-----------------------------3--------3-------5-4-0-0-|

GTR I


|-------------------------------|
|-------------------------------|
|-5-2-1-----0---------5-7-------|
|---------------3-5s7-----7s12--|
|-------------5-----------------|
|-------------------------------|

GTR II


|---------3-3---3---------3-----|
|-3---3-3-3-3---3---------3-----|
|-2---2-2-0-0---0---------0-----|
|-0---0-0-2-2---2---------2-----|
|-0---0-0-3-3---3---------3-----|
|-0---0-0-----------------------|

GTR I ~~


|-------------------------------------------------------------------|
|-------------------------------------------------------------------|
|-10----10----10-10-12b14(12)r---12b14(12)r(12)p10----10--------|
|----12-12-12-12---------------------------------------12----12-----|
|-------------------------------------------------------------------|
|-------------------------------------------------------------------|

GTR II


|-------------------------------------------------------------------|
|-------------------------------------------------------------------|
|--------0--------0-------------------------------------------------|
|-----0--------0----------------------------0-----------0-----------|
|--3--------2--------------------0-------------------0----------0-0-|
|----------------------------3-------------------3---------5--4-0-0-|

GTR I


PM----------------------------------|
|-------------------------------------|
|-------------------3-----3---3---5---|
|-----0-----0----2------0-------------|
|---0-----0---0-------2-----3---5-----|
|-1-----3-----------------------------|
|-------------------------------------|

GTR II


|-----------------------------------|
|-3-----5-----3-(3)-------3-3---5-5-|
|-3-----5-----2-(2)-------0-2---5-5-|
|-3-----5-----0-(0)-------2-3---5-5-|
|-1-----3---------------------------|
|-----------------------------------|

End of solo.

This is not by any means as complete as the power tab version, but it’s a very good
for learning the song.

h – hammer-on
p – pull-off
b – bend
r – bend
/ – slide into or out of (from/to “nowhere”)
~ – vibrato
PM – palm muting

Tabbed By Miles. “guitar@stereoradical.com” if you need anything.

To play the this songs, including I Stay Away by Alice in Chains by ukulele, the most crucial basic ukulele chords to learn are C chord, D chord, G chord, and Em chord.
These set you up to play a many of songs, and each of them is easy to learn.

Gravatar Image
Like to play Ukulele and Sudoku Game

Leave a Reply

Your email address will not be published. Required fields are marked *