I Love You by Bitch Alert Ukulele Chords

Posted on

If you are looking for I Love You ukulele chords, you’ve come to the right site.
You can play versatile instrument I Love You using ukulele or guitar.
This song by Bitch Alert can also be played by that instruments.
=

I Love You chords has rhythm and included in ..rriot! (2002) album.
You can also get another musical genres, including jazz ukulele chords, country music ukulele chords, pop ukulele chords, world music ukulele chords, and rock ukulele chords here.

I Love You by Bitch Alert Ukulele Chords


-----------------------------------------------------------------

Band: Bitch Alert – www.bitchalert.org
Song: I Love You (..rriot album)


-----------------------------------------------------------------

Intro, verses, chorus and whole song


E||---------------------------------------||
H||---------------------------------------||
G||-------------44-4-4-4-44--7-777-7-7----||
D||-4-4-4-4-44--44-4-4-4-44--7-777-7-7----||
A||-4-4-4-4-44--22-0-2-0-20--5-555-5-5----||
E||-2-0-2-0-20----------------------------||

On 2.verse

..Rip off my head, oh god,
now I’m in love
No, don’t lie to me Don’t come along with me


||------------|------------------------------------------||
||------------|------------------------------------------||
||------------|-------------44-4-4-4-44--7-777-7-7-------||
||-2222--333--|-4-4-4-4-44--44-4-4-4-44--7-777-7-7---(4)-||
||-2222--333--|-4-4-4-4-44--22-0-2-0-20--5-555-5-5---(4)-||
||-0000--111--|-2-0-2-0-20---------------------------(2)-||

In the end..

To play the this songs, including I Love You by Bitch Alert by ukulele, the most crucial basic ukulele chords to learn are C chord, D chord, G chord, and Em chord.
These set you up to play a a lot of songs, and each of them is easy to master.

Gravatar Image
Like to play Ukulele and Sudoku Game

Leave a Reply

Your email address will not be published. Required fields are marked *