Happy by Pharrell Williams Ukulele Chords

Posted on

If you are searching for Happy ukulele chords, you’ve visit to the best place.
You can play versatile instrument Happy using ukulele or guitar.
This song by Pharrell Williams can also be played by that instruments.
=

Happy chords has rhythm and included in Girl (2014) album.
You can also find another musical style, including jazz ukulele chords, country music ukulele chords, pop ukulele chords, world music ukulele chords, and rock ukulele chords here.

Happy by Pharrell Williams Ukulele Chords


Intro:


e|----------------------------------------------------------|
B|----------------------------------------------------------|
G|----------------------------------------------------------|
D|----------------------------------------------------------|
A|--2--2--2--2--2-------------------------------------------|
E|--0--0--0--0--0-------------------------------------------|

Riff:


e|-----------------------------------------------------------|
B|-----------------------------------------------------------|
G|-----------------------------------------------------------|
D|-----------------------------------------------------------|
A|--77--55--33--22-------------------------------------------|
E|-----------------------------------------------------------|

Riff 2:


e|-----------------------------------------------------------|
B|-----------------------------------------------------------|
G|-----------------------------------------------------------|
D|-----------------------------------------------------------|
A|---2-2--44--5-555--4-4---2---------------------------------|
E|-----------------------------------------------------------|

Couplet:
It might seem crazy
What I’m about to say

Riff

Sunshine, she’s here
You can take a break

Riff

I’m a hot air balloon
That could go to space

Riff

With the air
Like I don’t care
Baby, by the way

Riff

Chorus:
Uh, because I’m happy
Clap along if you feel like a room without a roof
Because I’m happy
Clap along if you feel like happiness is the truth
Because I’m happy
Clap along if you know what happiness is to you
Because I’m happy
Clap along if you feel like that’s what you wanna do

Couplet:

Here come bad news
Talking this and that (Yeah)

Riff

Well, gimme all you got
And don’t hold back (Yeah)

Riff

Well, I should probably warn you
I’ll be just fine (Yeah)

Riff

No offense to you
Don’t waste your time

Riff

Here’s why

Chorus:
Uh, because I’m happy
Clap along if you feel like a room without a roof
Because I’m happy
Clap along if you feel like happiness is the truth
Because I’m happy
Clap along if you know what happiness is to you
Because I’m happy
Clap along if you feel like that’s what you wanna do

Bridge:

Happy
Bring me down
Can’t noting (Happy)
Bring me down
My level’s too high (Happy)
To bring me down
Can’t noting (Happy)
Bring me down

I said (Happy happy)
Bring me down (Happy, happy)
Can’t noting (Happy, happy)
Bring me down (Happy, happy)
My level’s too high (Happy, happy)
To bring me down (Happy, happy)
Can’t noting (Happy, happy)
Bring me down
I said

Chorus:
Uh, because I’m happy
Clap along if you feel like a room without a roof
Because I’m happy
Clap along if you feel like happiness is the truth
Because I’m happy
Clap along if you know what happiness is to you
Because I’m happy
Clap along if you feel like that’s what you wanna do

Uh, because I’m happy
Clap along if you feel like a room without a roof
Because I’m happy
Clap along if you feel like happiness is the truth
Because I’m happy
Clap along if you know what happiness is to you
Because I’m happy
Clap along if you feel like that’s what you wanna do
Bridge:

Happy, happy
Bring me down (Happy, happy)
Can’t noting (Happy, happy)
Bring me down (Happy, happy)
My level’s too high (Happy, happy)
To bring me down (Happy, happy)
Can’t noting (Happy, happy)
Bring me down
I said

Chorus:
Uh, because I’m happy
Clap along if you feel like a room without a roof
Because I’m happy
Clap along if you feel like happiness is the truth
Because I’m happy
Clap along if you know what happiness is to you
Because I’m happy
Clap along if you feel like that’s what you wanna do

Uh, because I’m happy
Clap along if you feel like a room without a roof
Because I’m happy
Clap along if you feel like happiness is the truth
Because I’m happy
Clap along if you know what happiness is to you
Because I’m happy
Clap along if you feel like that’s what you wanna do

C’mon

To play the this songs, including Happy by Pharrell Williams by ukulele, the most crucial basic ukulele chords to learn are C chord, D chord, G chord, and Em chord.
These set you up to play a a lot of songs, and each of them is easy to master.

Gravatar Image
Like to play Ukulele and Sudoku Game

Leave a Reply

Your email address will not be published. Required fields are marked *