Fred Astaire by Lucky Boys Confusion Ukulele Chords

Posted on

If you are searching for Fred Astaire ukulele chords, you’ve visit to the right place.
You can play versatile instrument Fred Astaire using ukulele or guitar.
This song by Lucky Boys Confusion can also be played by that instruments.
=

Fred Astaire chords has rhythm and included in Growing Out of It album.
You can also find other musical genres, including jazz ukulele chords, country music ukulele chords, pop ukulele chords, world music ukulele chords, and rock ukulele chords here.

Fred Astaire by Lucky Boys Confusion Ukulele Chords


Transcribed by Brian S.

A Really Cool Song

Intro (clean) : w/ dist


e-----------------------------------------------------------------|
b--9----------------6---------------------------------------------|
g--8----------------5---------------------8-8-8-8-8-8-8---6-6-6-6-|
d--6----------------3---------------------8-8-8-8-8-8-8---6-6-6-6-|
a-----------------------------------------6-6-6-6-6-6-6---4-4-4-4-|
e-----------------------------------------------------------------|

You have so… I never had… Dont push so hard.. Nothing..

(2nd time guitar 1 plays chords)
G# F Eb (strum) Db (strum)


e-------------------------------------------------------------|
b-------------------------------------------------------------|
g--13--------------10-----------8---------------6-------------|
d-------------------------------8---------------6-------------|
a--11--------------8------------6---------------4-------------|
e-------------------------------------------------------------|

Prechorus :


e-------------------------------------------------------------|
b-------------------------------------------------------------|
g--------8---6--5--------8--/10---6---------6----8-8-8-8-8-8-|
d-x-6----8---6--5---6----8--/10---6----6----6----8-8-8-8-8-8-|
a-x-6----6---4--3---6----6--/8----4----6----4----6-6-6-6-6-6-|
e-x-4----------------4------------------4---------------------|

Chorus :
You can call it anything you want the fact remains the same,
F D# C# (fill 1)
I never got to be your Fred Astaire.
You can lie to yourself and all your friends, pretend that you dont care.
Circumstance gets in the way.

fill 1 w/ chorus :


e-----------------------|
b-----------9vvv--------|
g---8---6---------8-6--|
d-----------------------|
a-----------------------|
e-----------------------|

Interlude

Guitar 2 chords :

F F G# Eb /F C#

Guitar I :


e|----------------||
b|---9-9-----9----||
g|o------8-8---8-o||
d|o--------------o||
a|----------------||
e|----------------||

Bridge 6x :
You’re pushin.. So far…
Bridge 4x :
1&2 times play G#
3&4 times play C#

[G#(C#)]


e----------------------------|
b----------------------------|
g-----------12--12--/13-12--|
d---6--6---------------------|
a---6--6----10--10--/11-10--|
e--4--4---------------------|

Solo w/ two guitars :

Guitar I


e-------------------------------------------------|
b-------------------------------------------------|
g------------------Guitar 2-----------------------|
d-------------------------------------------|
a-------------6vvv--4vvv-------------6vvv--8vvv---|
e-1vvv--4vvv-------------1vvv--4vvv---------------|

Guitar I


e----------------------------------|
b----------------------------------|
g----------------------------8vvv--|
d----------------------------------|
a-------------10vvv--11vvv---6vvv--|
e-1vvv--4vvv-----------------------|

Guitar II


e----------------------------------|
b----------------------------11vvv-|
g----------------------------------|
d--------------------10vvv---8vvv--|
a----------------------------------|
e----------------------------------|

Outro Chorus : fingerpicking of clean chorus chords

To play the this songs, including Fred Astaire by Lucky Boys Confusion by ukulele, the most important basic ukulele chords to learn are C chord, D chord, G chord, and Em chord.
These set you up to play a ton of songs, and each of them is easy to master.

Gravatar Image
Like to play Ukulele and Sudoku Game

Leave a Reply

Your email address will not be published. Required fields are marked *