Four in the Morning by Night Ranger Ukulele Chords

Posted on

If you are searching for Four in the Morning ukulele chords, you’ve come to the best site.
You can play versatile instrument Four in the Morning using ukulele or guitar.
This song by Night Ranger can also be played by that instruments.
=

Four in the Morning chords has rhythm and included in 7 Wishes (1985) album.
You can also get another musical genres, including jazz ukulele chords, country music ukulele chords, pop ukulele chords, world music ukulele chords, and rock ukulele chords here.

Four in the Morning by Night Ranger Ukulele Chords


Night Ranger
1985
Written by Jack Blades

Intro: (Play Twice)

[G/F#]


E-----------------------------------------------
B---------------8----7--------------------------
G----------7--------------7---------------------
D--5---7-----------------------7----5-----------
A-----------------------------------------------
E-----------------------------------------------


E-----------------------------------------------
B---------------8----7--------------------------
G----------7--------------7---------------------
D--5---7-----------------------7----5-----------
A-----------------------------------------------
E-----------------------------------------------

Four in the morning came without a warning

Everybody’s got a place to be

I got holes in my conscience

Shot with a vengeance

I must have been a fool not to see

I need you bad it’s hard to live

Without your company

I need you bad so bad

I can’t take it you see oh I…

Can’t take anymore I can’t fake anymore

It’s such a hard time loving you

I can’t take anymore I can’t fake anymore

It’s such a hard time loving you

There was a time that I knew ya

I held my body to ya

Made you feel like you never felt before

And now it’s all in the distance

Still you keep resistin’

I love you like never before

I need you bad it’s hard to live

Without your tender touch

I need you bad so bad

I guess you’re playing me tough oh I..

Can’t take anymore I can’t fake anymore

It’s such a hard time loving you

I can’t take anymore I can’t fake anymore

It’s such a hard time loving you

I guess I was goin’ in the wrong direction

(Riff 1)


E-----------------------------------------------
B-----------------------------------------------
G---------------7-------------------------------
D----5----7-----5----7----4---------------------
A---------------7----7----5---------------------
E-----------------------------------------------

I guess I was thrown for a while

I need to see you smile I need you so yeah


E--15--14-------------14--12------14-----------
B----------15--12-------------15---------------
G--------------------------------------12--11--
D----------------------------------------------
A----------------------------------------------
E----------------------------------------------


E----------------------10---12---13---14-------
B-------------10--12-----------------------15--
G--9--11--12-----------------------------------
D----------------------------------------------
A----------------------------------------------

Em (Riff 1)
I must have been goin’ in the wrong direction

I guess I wa thrown for a while

I need you bad it’s hard to live

Without your company

I need you bad so bad I can’t take it you see

I need you bad it’s hard to

Live without your tender touch

I need you bad so bad

I wanna tell you so much oh I… can’t

Take anymore I can’t fake anymore

It’s such a hard time loving you

I can’t take anymore I can’t fake anymore

It’s such a hard time loving you

(Repeat And Fade)

To play the this songs, including Four in the Morning by Night Ranger by ukulele, the most important basic ukulele chords to learn are C chord, D chord, G chord, and Em chord.
These set you up to play a ton of songs, and each of them is easy to master.

Gravatar Image
Like to play Ukulele and Sudoku Game

Leave a Reply

Your email address will not be published. Required fields are marked *