For All of My Life by M.Y.M.P. Ukulele Chords

Posted on

If you are searching for For All of My Life ukulele chords, you have come to the best place.
You can play versatile instrument For All of My Life using ukulele or guitar.
This song by M.Y.M.P. can also be played by that instruments.
=

For All of My Life chords has rhythm and included in Versions (2005) album.
You can also get another musical genres, including jazz ukulele chords, country music ukulele chords, pop ukulele chords, world music ukulele chords, and rock ukulele chords here.

For All of My Life by M.Y.M.P. Ukulele Chords


Song : For all of my life
Artist : MYMP
Album : Versions

Transcribe by: Walter Michael De la Cruz – SLU Baguio City – 09224012464

Note: Hope u like this song guyz!! Enjoy

This song goes to Mhe-Anne. coz its ur Favorite. Hope u wil like it.

Intro: E-G#m-A-Am


e|---------0-------------0----------------0------0--------|
B|-------0---0---------0---0------------0----t---2--------|
G|-------------0----------------------2------a---2--------|
D|----2-----------------------------2--------P---1--------|
A|-------------------6--------6---0--------------0--------|
E|--0--------------4--------------------------------------|

Verse1: E-Am


E|--------0---------------0---------------0-----------------0--------|
B|----------0---------------1---------------0------------------1-----|
G|------------1---------------2---------------1-------------------2--|
D|------2--------------2----------------2-----------------2----------|
A|----2---------------2----------------2----------------2------------|
E|-0----------------0----------------0----------------0--------------|

Come and lay here beside me I’ll tell you how i feel


E|--------0---------------0-----------0-----2----0---|
B|----------0---------------1---------0-----2-----0--|
G|------------1---------------2--------------------1-|
D|------2--------------2------------2-----4-----2----|
A|----2---------------2-----------0------2-----2-----|
E|-0----------------0------------------------0-------|

There’s a secret inside me I’m ready to reveal

Refrain 1:


E|-----0-------4---|
B|------0-------4--|
G|----2--2---------|
D|---2-------6-----|
A|-0--------6------|
E|---------4-------|

To have you close, embrace your heart


E|------------------------2----------0----------------------|
B|------5---------4---------2---------0------5---5----5-----|
G|----4---4-------------------2----2---2-------4---4--------|
D|---6-----6----5-------4---------2-------------------------|
A|-4-----------3------4----------0-----------2--------2-----|
E|------------------2---------------------------------------|

With my love over and over These are things that i’ll promise, my promise to you

Chorus: The same as the Intro (E-G#m-A-Am) Plucking also


e|---------0-------------0----------------0------0--------|
B|-------0---0---------0---0------------0----t---2--------|
G|-------------0----------------------2------a---2--------|
D|----2-----------------------------2--------P---1--------|
A|-------------------6--------6---0--------------0--------|
E|--0--------------4--------------------------------------|

For all of my life You are the one
I will love you faithfully forever
All of my life You are the one
I’ll give to you my greatest love
For all of my life oooh oooh yeah yeah

Verse 2: The same as verse 1

Let me lay down beside you
There’s something you should know
I pray that you decide too
Open your heart and let me show

Refrain 2: The same as Refrain 1

Enchanted worlds of fairytales
Are wonder land of love
These are things that i’ll promise, my promise to you

To play the this songs, including For All of My Life by M.Y.M.P. by ukulele, the most important basic ukulele chords to learn are C chord, D chord, G chord, and Em chord.
These set you up to play a many of songs, and each of them is easy to learn.

Gravatar Image
Like to play Ukulele and Sudoku Game

Leave a Reply

Your email address will not be published. Required fields are marked *