For All Lovers by Stanfour Ukulele Chords

Posted on

If you are searching for For All Lovers ukulele chords, you already come to the best place.
You can play versatile instrument For All Lovers using ukulele or guitar.
This song by Stanfour can also be played by that instruments.
=

For All Lovers chords has rhythm and included in Wild Life (2007) album.
You can also find other musical style, including jazz ukulele chords, country music ukulele chords, pop ukulele chords, world music ukulele chords, and rock ukulele chords here.

For All Lovers by Stanfour Ukulele Chords


Normaly this is not my kind of music, but I heard this song and it went staight
into my head. That’s the reason why I was shocked, that nobody tabbed it out
correctly. This is my second tab, so don’t expect to much, but as far as I can
see this sounds correct

Chords
A?


E-------
H-------
G---2---
D---2---
A---0---
E-------

Intro


E-------------------------------------------------|
H------------0------------------------------------|
G-------6--------6-6------------------------------| x3
D-----6---6-------6-----2----------4--------------|
A---4------------------2--(2)-----4--(4)----------|
E--------------------0----------2-----------------|

This one goes out….


E------------------------------------------------|
H------------------------------------------------|
G-------4--------------4-------------------------|
D-----2---2----------4---4-----------------------|
A---0-------------2------------------------------|
E------------------------------------------------|

Falling from the sky

This one goes out to the lonely
This one goes out to the broken ones
This one goes out to the angels
Fallin’ from the sky
This one goes out to your brother
This one goes out to your mother
This one goes out to your sister
And this one’s for you

CHORUS part 1
And all the lovers and believers
And the ones who’ve been betrayed
To all the fighters, all the dreamers
And the ones who’ve not been saved

CHORUS part 2

Don’t lose your faith; I know you’re right
Don’t be scared of being lonely
I’m here with you

This one goes out to the lonely
This one goes out to the broken hearts
This one goes out to the people
Left behind, waiting to be found
I’ve seen your shadow in the dark
I’ve seen this straggle in your life
Feels like nothing comes out right

that’s it…..

If you have any corrections or questions, don’t be shy and contact me….

To play the most songs, including For All Lovers by Stanfour by ukulele, the most crucial basic ukulele chords to learn are C chord, D chord, G chord, and Em chord.
These set you up to play a ton of songs, and each of them is easy to master.

Gravatar Image
Like to play Ukulele and Sudoku Game

Leave a Reply

Your email address will not be published. Required fields are marked *