Erised by Periphery Ukulele Chords

Posted on

If you are searching for Erised ukulele chords, you’ve visit to the right place.
You can play versatile instrument Erised using ukulele or guitar.
This song by Periphery can also be played by that instruments.
=

Erised chords has rhythm and included in Periphery II: This Time It’s Personal (2012) album.
You can also get another musical style, including jazz ukulele chords, country music ukulele chords, pop ukulele chords, world music ukulele chords, and rock ukulele chords here.

Erised by Periphery Ukulele Chords


-------------------------------------------------------------------------------

Erised – Periphery


-------------------------------------------------------------------------------

5 string standard version of the tab originally posted by robotfrom94

Everything is formatted the same as the original, just ‘transposed’ from 4 string
drop C to 5 string standard

Thank you for the original tab robotfrom94!

Verse

[+] [+] [+] [+] [+] [+] [+] [+] [+] [+] [+] [+] [+] [+] [+] [+]


G|----------------|----------------|----------------|----------------|
D|-3-3-3-3-3------|--------------1-|--3-------------|------5---1-1-3-|
A|----------------|----------------|----------------|----------------|
E|----------------|----------------|----------------|----------------|
B|----------------|----------------|----------------|----------------|

[+] [+] [+] [+] [+] [+] [+] [+] [+] [+] [+] [+] [+] [+] [+] [+]


G|----------------|----------------|----------1-3---|----------------|
D|--1-3-----------|--------------3-|------3-5-------|------1-3-3-1-1-|
A|----------------|----------------|----------------|----------------|
E|----------------|----------------|----------------|----------------|
B|----------------|----------------|----------------|----------------|

[+] [+] [+] [+] [+] [+] [+] [+] [+] [+] [+] [+] [+] [+] [+] [+]


G|----------------|----------------|----------------|----------------|
D|--3-3-1-3-------|--------------1-|--3-------------|------5-5-1-1-3-|
A|----------------|----------------|----------------|----------------|
E|----------------|----------------|----------------|----------------|
B|----------------|----------------|----------------|----------------|

[+] [+] [+] [+] [+] [+] [+] [+] [+] [+] [+] [+] [+] [+] [+] [+]


G|----------------|------8/5-------|----------1-3---|----------------|
D|--1-3-----------|----------6-3-3-|--3-----3-----3-|--3-----3-1-1-1-|
A|----------------|----------------|----------------|----------------|
E|----------------|----------------|----------------|----------------|
B|----------------|----------------|----------------|----------------|

Pre-Chorus

[+] [+] [+] [+] [+] [+] [+] [+] [+] [+] [+] [+] [+] [+] [+] [+]


G|----------------|----------------|----------------|----------------|
D|--3-3-3-3-3-3-3-|3-3-3-3-3-3-3-1-|--3-3-3-3-3-3-1-|--3-3-3-3-3-3-5-|
A|----------------|----------------|----------------|----------------|
E|----------------|----------------|----------------|----------------|
B|----------------|----------------|----------------|----------------|x3

[+] [+] [+] [+] [+] [+] [+] [+] [+] [+] [+] [+] [+] [+] [+] [+]


G|----------------|----------------|----------------|----------------|
D|--3-3-3-3-3-3-3-|3-3-3-3-3-3-3-1-|--3-3-3-3-3-3-1-|--3-3-3-3-3-3-3-|
A|----------------|----------------|----------------|----------------|
E|----------------|----------------|----------------|----------------|
B|----------------|----------------|----------------|----------------|

Chorus

[+] [+] [+] [+] [+] [+] [+] [+] [+] [+] [+] [+] [+] [+] [+] [+]


G|----------------|----------------|----------------|----------------|
D|----------------|----------------|----------------|----------------|
A|----------------|----------------|----------------|----------------|
E|6-6-6-6-6-6-6-6-|6-6-6-6-6-6-6-6-|----------------|----------------|
B|----------------|----------------|2-2-2-2-2-2-2-2-|2-2-2-2-2-2-2-2-|

2x
[+] [+] [+] [+] [+] [+] [+] [+] [+] [+] [+] [+] [+] [+] [+] [+] [/]


G|----------------|----------------|----------------|----------------| /
D|----------------|----------------|----------------|----------------| /
A|----------------|----------------|----------------|----------------| /
E|----------------|----------------|----------------|----------------| /
B|6-6-6-6-6-6-6-6-|6-6-6-6-6-6-6-6-|4-4-4-4-4-4-4-4-|4-4-4-4-4-4-4-4-|/

Post-Chorus

[+] [+] [+] [+]


G|----------------|
D|----------------|
A|----------------|
E|5---------------| (hold for 4 measures)
B|----------------|

Verse 2

[+] [+] [+] [+] [+] [+] [+] [+] [+] [+] [+] [+] [+] [+] [+] [+]


G|----------------|----------------|----------------|----------------|
D|----------------|----------------|--------3-------|----------------|
A|----------------|----------------|----3-----1-----|----------------|
E|----------------|----------------|--1---1-----4---|----------4---1-|
B|4-6-6-6-6-------|--------------4-|----------------|------------4---|

[+] [+] [+] [+] [+] [+] [+] [+] [+] [+] [+] [+] [+] [+] [+] [+]


G|----------------|----------------|----------------|----------------|
D|----------------|--------3-------|--------------5-|6-5-------------|
A|----------------|----------3-----|----------3-----|----6-3---------|
E|----------------|------1---------|--------1---1---|--------4-1-----|
B|--4-6-----------|------------4-6-|------4---------|------------4-1-|

[+] [+] [+] [+] [+] [+] [+] [+] [+] [+] [+] [+] [+] [+] [+] [+]


G|----------------|----------------|----------------|----------------|
D|----------------|----------------|----------------|----------------|
A|----------------|----------------|----------------|----------------|
E|----------------|----------------|----------------|----------------|
B|4-6-6-6-6-------|--------------4-|--6-------------|--4-4-----4-4-6-|

[+] [+] [+] [+] [+] [+] [+] [+] [+] [+] [+] [+] [+] [+] [+] [+]


G|----------------|----------------|----------------|----------------|
D|----------------|----------------|----------------|----------------|
A|----------------|----------------|------------6-3-|------6-3-------|
E|----------------|----------------|----------------|----------------|
B|--4-6-----------|--------------6-|----6-6-6-4-----|6-6-6-----6-4-6-|

[+] [+] [+] [+] [+] [+] [+] [+] [+] [+] [+] [+] [+] [+] [+] [+]


G|----------------|----------------|----------------|----------------|
D|----------------|----------------|----------------|----------------|
A|----------------|----------------|----------------|----------------|
E|----------------|----------------|----------------|----------------|
B|--4-6-----------|--------------4-|--6-------------|----4-4---4-4-6-|

[+] [+] [+] [+] [+] [+] [+] [+] [+] [+] [+] [+] [+] [+] [+] [+]


G|----------------|----------------|----------------|----------------|
D|----------------|----------------|----------------|----------------|
A|----------------|----------------|----------------|----------------|
E|----------------|----------------|----------------|----------------|
B|--4-6-----------|--------------6-|------------6-6-|6-6-6-4-6-4-6---|

Pre-Chorus

[+] [+] [+] [+] [+] [+] [+] [+] [+] [+] [+] [+] [+] [+] [+] [+]


G|----------------|----------------|----------------|----------------|
D|--3-3-3-3-3-3-3-|3-3-3-3-3-3-3-1-|--3-3-3-3-3-3-1-|--3-3-3-3-3-3-5-|
A|----------------|----------------|----------------|----------------|
E|----------------|----------------|----------------|----------------|
B|----------------|----------------|----------------|----------------|x3

[+] [+] [+] [+] [+] [+] [+] [+] [+] [+] [+] [+] [+] [+] [+] [+]


G|----------------|----------------|----------------|----------------|
D|--3-3-3-3-3-3-3-|3-3-3-3-3-3-3-1-|--3-3-3-3-3-3-1-|--3-3-3-3-3-3-3-|
A|----------------|----------------|----------------|----------------|
E|----------------|----------------|----------------|----------------|
B|----------------|----------------|----------------|----------------|

Solo

[+] [+] [+] [+] [+] [+] [+] [+] [+] [+] [+] [+] [+] [+] [+] [+]


G|----------------|----------------|----------------|----------------|
D|----------------|----------------|----------------|----------------|
A|----------------|----------------|----------------|----------------|
E|6-6-6-6-6-6-6-6-|6-6-6-6-6-6-6-6-|----------------|----------------|
B|----------------|----------------|2-2-2-2-2-2-2-2-|2-2-2-2-2-2-2-2-|

2x
[+] [+] [+] [+] [+] [+] [+] [+] [+] [+] [+] [+] [+] [+] [+] [+] [/]


G|----------------|----------------|----------------|----------------| /
D|----------------|----------------|----------------|----------------| /
A|----------------|----------------|----------------|----------------| /
E|----------------|----------------|3-3-3-3-3-3-3-3-|3-3-3-3-3-3-3-3-| /
B|5-5-5-5-5-5-5-5-|5-5-5-5-5-5-5-5-|----------------|----------------|/

Chorus

[+] [+] [+] [+] [+] [+] [+] [+] [+] [+] [+] [+] [+] [+] [+] [+]


G|----------------|----------------|----------------|----------------|
D|----------------|----------------|----------------|----------------|
A|----------------|----------------|----------------|----------------|
E|6-6-6-6-6-6-6-6-|6-6-6-6-6-6-6-6-|----------------|----------------|
B|----------------|----------------|2-2-2-2-2-2-2-2-|2-2-2-2-2-2-2-2-|

4x
[+] [+] [+] [+] [+] [+] [+] [+] [+] [+] [+] [+] [+] [+] [+] [+] [/]


G|----------------|----------------|----------------|----------------| /
D|----------------|----------------|----------------|----------------| /
A|----------------|----------------|----------------|----------------| /
E|----------------|----------------|----------------|----------------| /
B|6-6-6-6-6-6-6-6-|6-6-6-6-6-6-6-6-|4-4-4-4-4-4-4-4-|4-4-4-4-4-4-4-4-|/

Breakdown 1 “funky as shit breakdown (not sure if slap or just Nolly’s tone)”

[+] [+] [+] [+] [+] [+] [+] [+] [+] [+] [+] [+] [+] [+] [+] [+]


G|----------------|----------------|----------------|----------------|
D|----------------|----------------|----------------|----------------|
A|3-------------3-|----------------|----------------|------------3---|
E|----------------|----------------|----------------|----------------|
B|----1---1-1-----|1-----1---x-x-1-|--x-1---1-1-x-x-|4---x-3---x---4-|

[+] [+] [+] [+] [+] [+] [+] [+] [+] [+] [+] [+] [+] [+] [+] [+]


G|----------------|----------------|----------------|----------------|
D|----------------|----------------|----------------|----------------|
A|----------------|------------3---|----------------|--------------3-|
E|----------------|----------------|----------------|----------1-3---|
B|----1---1-1-----|1---x-1---x---1-|--x-1---1-1-x-x-|1---x-1---------|

[+] [+] [+] [+] [+] [+] [+] [+] [+] [+] [+] [+] [+] [+] [+] [+]


G|----------------|----------------|----------------|----------------|
D|----------------|----------------|----------------|----------------|
A|----------------|----------------|----------------|------------4---|
E|----------------|----------------|----------------|----------------|
B|----1---1-1-----|1-----1---x-x-1-|--x-1---1-1-x-x-|4---x-3---x---1-|

[+] [+] [+] [+] [+] [+] [+] [+] [+] [+] [+] [+] [+] [+] [+] [+]


G|----------------|----------------|----------------|----------------|
D|----------------|----------------|----------------|----------------|
A|----------------|------------3---|----------------|----3-3---------|
E|----------------|----------------|----------------|----------------|
B|----1---1-1-----|1---x-1---x---1-|--x-1---1-1-x-x-|1---------1-1---|

Breakdown 2 “(less funky)let each not sustain until the next”

[+] [+] [+] [+] [+] [+] [+] [+] [+] [+] [+] [+] [+] [+] [+] [+]


G|----------------|----------------|----------------|----------------|
D|----------------|----------------|----------------|----------------|
A|3---------------|----------------|----------------|--------------3-|
E|----------------|----------------|----------------|----------1-3---|
B|----1---1-1-----|1-----1-----1-1-|----1---1-1-----|1-----1---------|

[+] [+] [+] [+] [+] [+] [+] [+] [+] [+] [+] [+] [+] [+] [+] [+]


G|----------------|----------------|----------------|----------------|
D|----------------|----------------|----------------|----------------|
A|----------------|----------------|----------------|--------------3-|
E|----------------|----------------|----------------|----------1-3---|
B|-----1--1-1-----|1---------------|-----1---1-1----|1-----1---------|

[+] [+] [+] [+] [+] [+] [+] [+] [+] [+] [+] [+] [+] [+] [+] [+]


G|----------------|----------------|----------------|----------------|
D|----------------|----------------|----------------|----------------|
A|3---------------|----------------|----------------|--------------3-|
E|----------------|----------------|----------------|----------1-3---|
B|----1---1-1-----|1-----1-----1-1-|----1---1-1-----|1-----1---------|

[+] [+] [+] [+] [+] [+] [+] [+]


G|----------------|----------------|
D|----------------|----------------|
A|----------------|----------------|
E|----------------|----------------|
B|----1---1-1-----|1-----1-----1-1-|x2

Rest for Ages

Outro

[+] [+] [+] [+] [+] [+] [+] [+] [+] [+] [+] [+] [+] [+] [+] [+]


G|----------------|----------------|----------------|----------------|
D|----------------|----------------|----------------|----------------|
A|----------------|----------------|----------------|----------------|
E|----------------|----------------|----------------|----------------|
B|6-6-6-6-6-6-6-6-|6-6-6-6-6-6-6-6-|4-4-4-4-4-4-4-4-|4-4-4-4-4-4-4-4-|

[+] [+] [+] [+] [+] [+] [+] [+] [+] [+] [+] [+] [+] [+] [+] [+]


G|----------------|----------------|----------------|----------------|
D|----------------|----------------|----------------|----------------|
A|----------------|----------------|----------------|----------------|
E|4-4-4-4-4-4-4-4-|4-4-4-4-4-4-4-4-|4-4-4-4-4-4-4-4-|4-4-4-4-4-4-4-4-|
B|----------------|----------------|----------------|----------------|

Repeat Until End

To play the this songs, including Erised by Periphery by ukulele, the most crucial basic ukulele chords to learn are C chord, D chord, G chord, and Em chord.
These set you up to play a ton of songs, and each of them is easy to learn.

Gravatar Image
Like to play Ukulele and Sudoku Game

Leave a Reply

Your email address will not be published. Required fields are marked *