Don’t Hold Back by The Sleeping Ukulele Chords

Posted on

If you are looking for Don’t Hold Back ukulele chords, you have visit to the best place.
You can play versatile instrument Don’t Hold Back using ukulele or guitar.
This song by The Sleeping can also be played by that instruments.
=

Don’t Hold Back chords has rhythm and included in Questions and Answers (2006) album.
You can also get another musical genres, including jazz ukulele chords, country music ukulele chords, pop ukulele chords, world music ukulele chords, and rock ukulele chords here.

Don’t Hold Back by The Sleeping Ukulele Chords


This is a great song and its starting to be known thanx to gh3 so i decided to
figure it out. Enjoy.

Key:
~ hold note
x dead note
/ slide up to
slide down to
h hammer on
p pull off


E|----------------------------------------------------------------------|
B|----------------------------------------------------------------------|
G|----------------------------------------------------------------------|
D|--4h6-4h6-4-6p4h6--4h6-4h6-4-6p4h6--4h6-9-8-6--4h6-9-8-6--------------|
A|----------------------------------------------------------------------|
E|----------------------------------------------------------------------|
E|---------------------------------------------------------------7-6~---|
B|------------------------------------------------------7h9-7h9---------|
G|------------------------------------6h8-6h8-6-8p6h8-------------------|
D|--6h9-6h9-6-9p6h9--6h9-6h9-6-9p6h9------------------------------------|
A|----------------------------------------------------------------------|
E|----------------------------------------------------------------------|
E|----------------------------------------------------------------------|
B|----------------------------------------------------------------------|
G|----------------------------------------------------------------------|
D|--4h6-4h6-4-6p4h6--4h6-4h6-4-6p4h6--4h6-9-8-6--4h6-9-8-6--------------|
A|----------------------------------------------------------------------|
E|----------------------------------------------------------------------|
E|----------------------------------------------------------------------|
B|------------------------------------------------------7h9-7h9~--------|
G|------------------------------------6h8-6h8-6-8p6h8-------------------|
D|--6h9-6h9-6-9p6h9--6h9-6h9-6-9p6h9------------------------------------|
A|----------------------------------------------------------------------|
E|----------------------------------------------------------------------|

[Verse 1]


E|----------------------------------------------------------------------|
B|--12------12------12--------------------------------------------------|
G|------------------------11------11-----11-----------------------------|
D|-----9-------9-------------9-------9----------------------------------|
A|-------11------11----11------11------11------13-14-11-13-14-11-13~----|
E|----------------------------------------------------------------------|
E|-----------------------------------------------|
B|--12------12------12---------------------------|
G|------------------------11------11------11-----|
D|-----9-------9-------------9-------9-----------|
A|-------11------11----11------11------11----11--|
E|-----------------------------------------------|
E|----------------------------------------------------------------------|
B|----------------------------------------------------------------------|
G|------6-----8~------6-----8-------------------------------------------|
D|--6-8---8-9-----6-8---8-9--9-8~-6-4-----------------------------------|
A|---------------------------------------------------13-14-11-13~-------|
E|----------------------------------------------------------------------|
E|----------------------------------------------------------------------|
B|--12------12------12--------------------------------------------------|
G|------------------------11------11------11----------------------------|
D|-----9-------9-------------9-------9----------------------------------|
A|-------11------11----11------11------11-------13-14-11-13-14-11-13~---|
E|----------------------------------------------------------------------|
E|-----------------------------------------------|
B|--12------12------12---------------------------|
G|------------------------11------11------11-----|
D|-----9-------9-------------9-------9-----------|
A|-------11------11----11------11------11----11--|
E|-----------------------------------------------|
E|----------------------------------------------------------------------|
B|----------------------------------------------------------------------|
G|------6-----8~--------------------------------------------------------|
D|--6-8---8-9-----4h6-6-6h8h61-1h4p1-----------------------------------|
A|------------------------------------4~-2--------13-14-11-13-14-11-13~-|
E|-----------------------------------------4-2--------------------------|
E|----------------------------------------------------------------------|
B|--12------12------12--------------------------------------------------|
G|------------------------11------11------11----------------------15~---|
D|-----9-------9-------------9-------9----------------------------15~---|
A|-------11------11----11------11------11----11-13-14-11-13-14-11-13~---|
E|----------------------------------------------------------------------|
E|----------------------------------------------------------------------|
B|--12------12------12--------------------------------------------------|
G|------------------------11------11------11----------------------------|
D|-----9-------9-------------9-------9--------4///16\4///16\\4------|
A|-------11------11----11------11------11-------------------------------|
E|----------------------------------------------------------------------|

(slide pick sideways)


E|------------------------------------------------|
B|------------------------9-----------------------|
G|------6-----8-----6-----------------------------|
D|--6-8---8-9---9-8---8-6---6---------------------|
A|------------------------------------------------|
E|------------------------------------------------|


E|-----------------------------------------------------------------------|
B|-----------------------------------------------------------------------|
G|-----------------------------------------------------------------------|
D|-6-6-6-6-xxxxxx--11--11-11-13-11--11-13-11--11-9-11-13-----------------|
A|-6-6-6-6-xxxxxx--------------------------------------------------------|
E|-4-4-4-4-xxxxxx--------------------------------------------------------|
E|-----------------------------------------------------------------------|
B|-----------------------------9-9-9-7--9-7------------------------------|
G|-------------------------4~--8-8-8-6--8-6------------------------------|
D|-2--2--2--2--2--2--2--2--4~--6-6-6-4--6-4------------------------------|
A|-2--2--2--2--2--2--2--2--2~--------------------------------------------|
E|-0--0--0--0--0--0--0--0------------------------------------------------|
E|-----------------------------------------------------------------------|
B|-----------------------------------------------------------------------|
G|-----------------------------------------------------------------------|
D|-6-6-6-6-xxxxxx--11--11-11-13-11--11-13-11--11-9-11-13-----------------|
A|-6-6-6-6-xxxxxx--------------------------------------------------------|
E|-4-4-4-4-xxxxxx--------------------------------------------------------|
E|-----------------------------------------------------------------------|
B|-----------------------------9-9-9-7--9-7------------------------------|
G|-------------------------4~--8-8-8-6--8-6------------------------------|
D|-2--2--2--2--2--2--2--2--4~--6-6-6-4--6-4------------------------------|
A|-2--2--2--2--2--2--2--2--2~--------------------------------------------|
E|-0--0--0--0--0--0--0--0------------------------------------------------|


E|----------------------------------------------------------------------|
B|----------------------------------------------------------------------|
G|----------------------------------------------------------------------|
D|--4h6-4h6-4-6p4h6--4h6-4h6-4-6p4h6--4h6-9-8-6--4h6-9-8-6--------------|
A|----------------------------------------------------------------------|
E|----------------------------------------------------------------------|
E|----------------------------------------------------------------------|
B|------------------------------------------------------7h9-7h9~-------|
G|------------------------------------6h8-6h8-6-8p6h8-------------------|
D|--6h9-6h9-6-9p6h9--6h9-6h9-6-9p6h9------------------------------------|
A|----------------------------------------------------------------------|
E|----------------------------------------------------------------------|

[Verse 2]


E|----------------------------------------------------------------------|
B|--12------12------12--------------------------------------------------|
G|------------------------11------11-----11-----------------------------|
D|-----9-------9-------------9-------9----------------------------------|
A|-------11------11----11------11------11------13-14-11-13-14-11-13~----|
E|----------------------------------------------------------------------|
E|-----------------------------------------------|
B|--12------12------12---------------------------|
G|------------------------11------11------11-----|
D|-----9-------9-------------9-------9-----------|
A|-------11------11----11------11------11----11--|
E|-----------------------------------------------|
E|----------------------------------------------------------------------|
B|----------------------------------------------------------------------|
G|------6-----8~--------------------------------------------------------|
D|--6-8---8-9---4-6-6~-4-6-8~-6-8---------------------------------------|
A|------------------------------------------13-14-11-13-14-11-13~-------|
E|----------------------------------------------------------------------|
E|----------------------------------------------------------------------|
B|--12------12------12--------------------------------------------------|
G|------------------------11------11------11----------------------xx15~-|
D|-----9-------9-------------9-------9----------------------------xx15~-|
A|-------11------11----11------11------11-------13-14-11-13-14-11-xx13~-|
E|----------------------------------------------------------------------|
E|----------------------------------------------------------------------|
B|--12------12------12--------------------------------------------------|
G|------------------------11------11------11----------------------------|
D|-----9-------9-------------9-------9---------16\4///16\4///16-----|
A|-------11------11----11------11------11-------------------------------|
E|----------------------------------------------------------------------|

(slide pick sideways)


E|------------------------------------------------|
B|------------------------9-----------------------|
G|------6-----8-----6-----------------------------|
D|--6-8---8-9---9-8---8-6---6---------------------|
A|------------------------------------------------|
E|------------------------------------------------|


E|-----------------------------------------------------------------------|
B|-----------------------------------------------------------------------|
G|-----------------------------------------------------------------------|
D|-6-6-6-6-xxxxxx--11--11-11-13-11--11-13-11--11-9-11-13-----------------|
A|-6-6-6-6-xxxxxx--------------------------------------------------------|
E|-4-4-4-4-xxxxxx--------------------------------------------------------|
E|-----------------------------------------------------------------------|
B|-----------------------------9-9-9-7--9-7------------------------------|
G|-------------------------4~--8-8-8-6--8-6------------------------------|
D|-2--2--2--2--2--2--2--2--4~--6-6-6-4--6-4------------------------------|
A|-2--2--2--2--2--2--2--2--2~--------------------------------------------|
E|-0--0--0--0--0--0--0--0------------------------------------------------|
E|-----------------------------------------------------------------------|
B|-----------------------------------------------------------------------|
G|-----------------------------------------------------------------------|
D|-6-6-6-6-xxxxxx--11--11-11-13-11--11-13-11--11-9-11-13-----------------|
A|-6-6-6-6-xxxxxx--------------------------------------------------------|
E|-4-4-4-4-xxxxxx--------------------------------------------------------|
E|-----------------------------------------------------------------------|
B|-----------------------------------------------------------------------|
G|-------------------------4~--------------------------------------------|
D|-2--2--2--2--2--2--2--2--4~--------------------------------------------|
A|-2--2--2--2--2--2--2--2--2~--------------------------------------------|
E|-0--0--0--0--0--0--0--0------------------------------------------------|

[Breakdown]


E|-----------------------------------------------------------------------|
B|-----------------------------------------------------------------------|
G|-----------------------------------------------------------------------|
D|-xxxxxx-9-6~-6-4-6---9-6~-6-4-6---9-6~-6-4-6--xx-x9-6~-6-4-6~---------|
A|-xxxxxx-9-6~-6-4-6---9-6~-6-4-6---9-6~-6-4-6--xx-x9-6~-6-4-6~---------|
E|-xxxxxx-7-4~-4-2-4---7-4~-4-2-4---7-4~-4-2-4--xx-x7-4~-4-2-4~---------|
E|-----------------------------------------------------------------------|
B|-----------------------------------------------------------------------|
G|-----------------------------------------------------------------------|
D|-----------------------------13-11~~~-------------13-11----11---11-----|
A|-11~~~-13~~~-14~~~-16~~~--11----------11-11-11-11-------14----14---11~-|
E|-----------------------------------------------------------------------|
E|-----------------------------------------------------------------------|
B|-----------------------------------------------------------------------|
G|---------------------------------------------------11111111111111111---|
D|-----------------------------------------------------------------------|
A|-----------------------------------9999999999999999-9999999999999999---|
E|-4444444444444444/7777777777777777-------------------------------------|
[---------------Palm-Mute-Section------------------] ^^^ those are 11's


E|-----------------------------------------------------------------------|
B|-----------------------------------------------------------------------|
G|-----------------------------------------------------------------------|
D|-6-6-6-6-xxxxxx--11--11-11-13-11--11-13-11--11-9-11-13-----------------|
A|-6-6-6-6-xxxxxx--------------------------------------------------------|
E|-4-4-4-4-xxxxxx--------------------------------------------------------|
E|-----------------------------------------------------------------------|
B|-----------------------------9-9-9-7--9-7------------------------------|
G|-------------------------4~--8-8-8-6--8-6------------------------------|
D|-2--2--2--2--2--2--2--2--4~--6-6-6-4--6-4------------------------------|
A|-2--2--2--2--2--2--2--2--2~--------------------------------------------|
E|-0--0--0--0--0--0--0--0------------------------------------------------|
E|-----------------------------------------------------------------------|
B|-----------------------------------------------------------------------|
G|-----------------------------------------------------------------------|
D|-6-6-6-6-xxxxxx--11--11-11-13-11--11-13-11--11-9-11-13-----------------|
A|-6-6-6-6-xxxxxx--------------------------------------------------------|
E|-4-4-4-4-xxxxxx--------------------------------------------------------|
E|-----------------------------------------------------------------------|
B|-----------------------------9-9-9-7--9-7------------------------------|
G|-------------------------4~--8-8-8-6--8-6------------------------------|
D|-2--2--2--2--2--2--2--2--4~--6-6-6-4--6-4------------------------------|
A|-2--2--2--2--2--2--2--2--2~--------------------------------------------|
E|-0--0--0--0--0--0--0--0------------------------------------------------|


E|----------------------------------------------------------------------|
B|----------------------------------------------------------------------|
G|----------------------------------------------------------------------|
D|--4h6-4h6-4-6p4h6--4h6-4h6-4-6p4h6--4h6-9-8-6--4h6-9-8-6--------------|
A|----------------------------------------------------------------------|
E|----------------------------------------------------------------------|
E|----------------------------------------------------------------------|
B|----------------------------------------------------9~----------------|
G|------------------------------------6h8-6h8-6-8p6h8-------------------|
D|--6h9-6h9-6-9p6h9--6h9-6h9-6-9p6h9--------------------9~-8~-6~~~~~~~--|
A|----------------------------------------------------------------------|
E|----------------------------------------------------------------------|

-KdWwasHere

To play the this songs, including Don’t Hold Back by The Sleeping by ukulele, the most important basic ukulele chords to learn are C chord, D chord, G chord, and Em chord.
These set you up to play a a lot of songs, and each of them is easy to master.

Gravatar Image
Like to play Ukulele and Sudoku Game

Leave a Reply

Your email address will not be published. Required fields are marked *