Don’t Break My Heart by UB40 Ukulele Chords

Posted on

If you are searching for Don’t Break My Heart ukulele chords, you have come to the right place.
You can play versatile instrument Don’t Break My Heart using ukulele or guitar.
This song by UB40 can also be played by that instruments.
=

Don’t Break My Heart chords has rhythm and included in Other Songs album.
You can also get other musical style, including jazz ukulele chords, country music ukulele chords, pop ukulele chords, world music ukulele chords, and rock ukulele chords here.

Don’t Break My Heart by UB40 Ukulele Chords


---------------------------------------------------------------------------

Don’t Break My Heart – UB40


---------------------------------------------------------------------------

Tabbed by: maguri
Tuning: Standard

UB40
Don’t Break My Heart (1985)

Bass riff
[F7/G]


e|----------------|----------------|----------------|----------------|
B|----------------|----------------|----------------|----------------|
G|----------------|----------------|----------------|----------------|
D|------------5---|------------5---|------------5---|--------5-------|
A|--------3-5-----|--------3-5-----|--------3-5-----|----3-5-----5---|
E|3-------------3-|----------------|3-------------3-|----------------|

The song is in G and the hypnotic bass line runs through the whole song.
I suggest to put on a capo (3rd fret) and play E.


---------------------------------------------------------------------------

CHORDS

e-B-G-D-A-E
E 0-0-1-2-2-0
D7/E 2-1-2-x-2-0
Am/E 0-1-2-x-2-0
D/E 2-3-2-2-2-0
A/E 0-2-2-2-2-0


---------------------------------------------------------------------------

Capo 3rd fret

Bass riff
[D7/E]


e|----------------|----------------|----------------|----------------|
B|----------------|----------------|----------------|----------------|
G|----------------|----------------|----------------|----------------|
D|------------2---|------------2---|------------2---|--------2-------|
A|--------0-2-----|--------0-2-----|--------0-2-----|----0-2-----2---|
E|0-------------0-|----------------|0-------------0-|----------------|

INTRO
| E | % | D7/E | % |

You shoot me down in flames, you put me down a lot
I’m [D7/E]giving you my heart, go on take it
Please be careful not to break it
Just re[D7/E]member it’s the only one I’ve [Am/E]got
Am/E
It’s the only one I’ve got

Don’t break my heart
[D7/E]Don’t break my heart[Am/E]
Don’t break my heart

You [D7/E]make me laugh a lot and buy me silly things
I’d rather be with you than anyone else
But [D7/E]if you make me mad, but [Am/E]if you make me mad
You’ll wish that you had not, you’ll wish that you had not

[D7/E]Don’t break my heart [Am/E]
Don’t break my heart
[D7/E]Don’t break my heart [Am/E]
Don’t break my heart

[D/E] Where are the roses [A/E] and whispered sighs
Where are the compliments and dreaming eyes
[D7/E] It doesn’t matter you see, [Am/E] I know you love me;
Real basic love never dies [D7/E] [Am/E] oooh

Don’t break my heart
[D7/E]Don’t break my heart[Am/E]
Don’t break my heart

[D/E] Where are the roses [A/E] and whispered sighs
[Don’t break my heart]
Where are the compliments and dreaming eyes
[Don’t break my heart]
[D7/E] It doesn’t matter you see, [Am/E] I know you love me;
Real basic love never dies

[D7/E]Don’t break my heart [Am/E]
Don’t break my heart
[D7/E]Don’t break my heart [Am/E]
Don’t break my heart
[D7/E]Don’t break my heart [Am/E]
Don’t break my heart
[D7/E]Don’t break my heart [Am/E]
Don’t break my heart

| D/E | A/E | E | % |
| D/E | A/E | E | % |
| D7/E | Am/E | E | % |

(repeat and FADE)

To play the this songs, including Don’t Break My Heart by UB40 by ukulele, the most crucial basic ukulele chords to learn are C chord, D chord, G chord, and Em chord.
These set you up to play a ton of songs, and each of them is easy to learn.

Gravatar Image
Like to play Ukulele and Sudoku Game

Leave a Reply

Your email address will not be published. Required fields are marked *