Crisis by Postmen Ukulele Chords

Posted on

If you are searching for Crisis ukulele chords, you have visit to the right site.
You can play versatile instrument Crisis using ukulele or guitar.
This song by Postmen can also be played by that instruments.
=

Crisis chords has rhythm and included in album.
You can also find another musical genres, including jazz ukulele chords, country music ukulele chords, pop ukulele chords, world music ukulele chords, and rock ukulele chords here.

Crisis by Postmen Ukulele Chords


SONG TITLE: Crisis
ARTIST/GROUP: Postmen
ALBUM: Documents
TRANSCRIBED BY: Nick Vandepitte
EMAIL: rah_yanka@hotmail.com

Legend


------

h hammer on
p pull-off
b bend
r bend release
/ slide up
slide down
~ vibrato

INTRO
hold bend


------------------------------------------------------------------------
-----12--14b15~~~~-15r14p12--14~~~~-------------------------------------
--14---------------------------------16h18p16p14----16~~~~--------------
------------------------------------------------------------16~~~~------
------------------------------------------------------------------------
------------------------------------------------------------------------
------------------------------------------------------------------------
-------------19~~~~--19-19-19--17--15-----17~~~~------------------------
------14-16-------------------------------------------------------------
--/16-------------------------------------------------------------------
------------------------------------------------------------------------
------------------------------------------------------------------------
----------------------------------------------19/20-20-20~~~~-----------
--15h17-15p14-15--14-----------------19-19------------------------------
---------------------/14-16--16~~~~-------------------------------------
------------------------------------------------------------------------
------------------------------------------------------------------------
------------------------------------------------------------------------

Say, the rebel his eye
We have to stop this crisis from conquering the righteous

(Bar chords are played with a Wah Wah feel, the single notes are palm muted.
Both pieces are played together throughout the song)


|--7--------------------------5-----------------------
|--7--------------------------5-----------------------
|--7--------------------------6-----------------------
|--9--------------------------7-----------------------
|--9--------------------------7-----------------------
|--7--------------------------5-----------------------

|


|-----------------------------------------------------
|-----------------------------------------------------
|-----------------------------------------------------
|-----------------------------------------------------
|--------9-9-7------------------------9-9-9-7---------
|--7--7--------9--5--7--------7-7--7-----------9--7---


|--7--------------------------------------------------
|--7--------------------------------------------------
|--7--------------------------------------------------
|--9--------------------------------------------------
|--9--------------------------------------------------
|--7--------------------------------------------------

|


|-----------------------------------------------------
|-----------------------------------------------------
|-----------------------------------------------------
|-----------------------------------------------------
|--------9-9-7------------------------9-9-9-7---------
|--7--7--------9--5--7--------7-7--7-----------9--7---

CHORUS

No matter what the crisis,
I refuse to live like this (repeated)


------------------------------------------------------------------------
------------------------------------------------------------------------
---14b16~~~~------------------------------------------------------------
------------------------------------------------------------------------
-----------------------------------------16b17r16-----------------------
------------------------------------------------------------------------

No matter what the crisis, I refuse to live like this..


------------------------------------------------------------------------
---12-14-15-14~~~~-----------------19-19-19~~-----17-15-17---15-14------
----------------------------16-18----------------------------------16~~-
------------------------------------------------------------------------
------------------------------------------------------------------------
------------------------------------------------------------------------

When I’m enthousiastic
I stretch problems like elastic


--------------------------------
---12-14-14b15~~~~--------------
--------------------------------
--------------------------------
--------------------------------
--------------------------------

..I seldom missed it


--------------------------------
----15b14p12-------------------
---------------16~~-------------
--------------------------------
--------------------------------
--------------------------------

..ten out of ten times rejected


---19b20~~~~--------------------
--------------------------------
--------------------------------
--------------------------------
--------------------------------
--------------------------------

..the knowledge of a man who didn’t know he healed ya
I feel eyes stabbing me… ..it was the most high


------------------------------------------------------------------------
---22-------------------------------------------------------------------
-------21~~--21b23r21p21-----19-----------------------------------------
--------------------------21-------24r23------------21~~----------------
------------------------------------------------------------------------
------------------------------------------------------------------------

..folks try to analyze

CHORUS

No matter what the crisis, I refuse to live like this..


------------------------------------------------------------------------
------------15-17--17r15~~----------------------------------------------
---16-16-16-------------------------------------------------------------
------------------------------------------------------------------------
------------------------------------------------------------------------
------------------------------------------------------------------------

I speech cause… …wide range


------------------------------------------------------------------------
------------12-14--14b15~~~~------------14~~----------------------------
---16-16-16-------------------14--16p14-----------14-16~~~~-------------
----------------------------------------------16------------------------
------------------------------------------------------------------------
------------------------------------------------------------------------

I divorced from… ..cast your evil spell


------------------------------------------------------------------------
---15~~~--15h17p15-14~~--15/17---17/19~~~~------------------------------
------------------------------------------------------------------------
------------------------------------------------------------------------
------------------------------------------------------------------------
------------------------------------------------------------------------

the worst enemies to conquer the light will guide me in hell


---------------------19b20~~~~--
--------------------------------
--------------------------------
--------------------------------
--------------------------------
--------------------------------

CHORUS


------------------------------------------------------------------------
------------------------------------------------------------------------
---14r12-----------------------------------16---16~~--16-18---21--21~~--
---------12-14-12~~--9h11p9~~-------------------------------------------
------------------------------------------------------------------------
------------------------------------------------------------------------

..prevent a crisis ..to complete judgement


------------------------------------------------------------------------
---------5/17x-------------7/19x----7/19x--10/22x-------------------
------------------------------------------------------------------------
------------------------------------------------------------------------
------------------------------------------------------------------------
------------------------------------------------------------------------

..Jah revealed me …live good …acknowledge the key


----19b21~~~~------17--------19b21~~~~----------------------------------
----------------19----19-17--------------------------19~~~~-------------
------------------------------------------------------------------------
------------------------------------------------------------------------
------------------------------------------------------------------------
------------------------------------------------------------------------

we share roots from the same tree..

acoustic guitar lick


---12-12--------10~~--9~~~~-----
--------------------------------
--------------------------------
--------------------------------
--------------------------------
--------------------------------

CHORUS


------------------------------------------------------------------------
------------------------------------------------------------------------
----16-18--18b19---19r18p16-18~~~~-------------------------16~~~~~~~~---
------------------------------------/16--19-----------------------------
------------------------------------------------------------------------
------------------------------------------------------------------------

Questions, comments, corrections send to:
rah_yanka@hotmail.com

To play the this songs, including Crisis by Postmen by ukulele, the most important basic ukulele chords to learn are C chord, D chord, G chord, and Em chord.
These set you up to play a ton of songs, and each of them is easy to master.

Gravatar Image
Like to play Ukulele and Sudoku Game

Leave a Reply

Your email address will not be published. Required fields are marked *