Cowboys and Indians by Milburn Ukulele Chords

Posted on

If you are looking for Cowboys and Indians ukulele chords, you already visit to the right site.
You can play versatile instrument Cowboys and Indians using ukulele or guitar.
This song by Milburn can also be played by that instruments.
=

Cowboys and Indians chords has rhythm and included in These Are the Facts (2007) album.
You can also get other musical style, including jazz ukulele chords, country music ukulele chords, pop ukulele chords, world music ukulele chords, and rock ukulele chords here.

Cowboys and Indians by Milburn Ukulele Chords


Tuning : Standard EADGBE
Chords :
Cm A#/Bb G#/Ab Gm Cm


E |----8-----6------4------3-----3----|
B |----8-----6------4------3-----4----|
G |----8-----7------5------3-----5----|
D |----10----8------6------5-----5----|
A |----10----8------6------5-----3----|
E |----8-----6------4------3----------|

[A#/Bb]


e|-------------------------------------------------------------------------|
B|-------------------------------------------------------------------------|
G|-------------------------------------------------------------------------|
D|-------------------------------------------------------------------------|
A|--15-15-15-15--13-13-13-13--11-11-11-11--10-10-10-10--13-13-13-13---|
E|-------------------------------------------------------------------------|

Fast Picking

[G#/Ab]


e|-------------------------------------------------------------------------|
B|-------------------------------------------------------------------------|
G|-------------------------------------------------------------------------|
D|-------------------------------------------------------------------------|
A|--11-11-11-11--10-10-10-10--8-8-8-8--11-11-11-11--10-10-10-10-------|
E|-------------------------------------------------------------------------|

Gm Cm


e|--------------------------------------------------------------------3----|
B|--------------------------------------------------------------------4----|
G|--------------------------------------------------------------------5----|
D|--------------------------------------------------------------------5----|
A|--8-8-8-8--6-6-6-6--10-10-10-10--8-8-8-8--6-6-6-6--5-5-5-5----3----|
E|-------------------------------------------------------------------------|

Gtr.1


e|-------------------3--3-------------------3--3---------------------------|
B|-------------------4--4-------------------4--4---------------------------|
G|-------3--4--5-----5--5--------3--4--5----5--5---------------------------|
D|----5-----------------------5--------------------------------------------|
A|-------------------------------------------------------------------------|
E|-------------------------------------------------------------------------|

|
|
|Gtr.2


e|-------------------------------------------------------------------------|
B|-------------------------------------------------------------------------|
G|--------------8p7-8p7-8p7h8---------------8p7-8p7-8p7h8------------------|
D|-------------------------------------------------------------------------|
A|-------------------------------------------------------------------------|
E|-------------------------------------------------------------------------|

Gtr.1


e|------------------3--3-------------------3--3----------------------------|
B|------------------3--3-------------------4--4----------------------------|
G|----5--4--3-------3--3--------3--4--5----5--5----------------------------|
D|-------------5-------------5---------------------------------------------|
A|-------------------------------------------------------------------------|
E|-------------------------------------------------------------------------|

|
|
|Gtr.2


e|-------------------------------------------------------------------------|
B|-------------------------------------------------------------------------|
G|---------------7p5-7p5-7p5h7-------------8p7-8p7-8p7h8-------------------|
D|-------------------------------------------------------------------------|
A|-------------------------------------------------------------------------|
E|-------------------------------------------------------------------------|

Gtr.1


e|-------------------3--3-------------------3--3---------------------------|
B|-------------------4--4-------------------4--4---------------------------|
G|-------3--4--5-----5--5--------3--4--5----5--5---------------------------|
D|----5-----------------------5--------------------------------------------|
A|-------------------------------------------------------------------------|
E|-------------------------------------------------------------------------|

We used to go out

Gtr.1


e|------------------3--3-------------------3--3----------------------------|
B|------------------3--3-------------------4--4----------------------------|
G|----5--4--3-------3--3--------3--4--5----5--5----------------------------|
D|-------------5-------------5---------------------------------------------|
A|-------------------------------------------------------------------------|
E|-------------------------------------------------------------------------|

Together all the time

Gtr.1


e|-------------------3--3-------------------3--3---------------------------|
B|-------------------4--4-------------------4--4---------------------------|
G|-------3--4--5-----5--5--------3--4--5----5--5---------------------------|
D|----5-----------------------5--------------------------------------------|
A|-------------------------------------------------------------------------|
E|-------------------------------------------------------------------------|

I would look between my fingers

Gtr.1


e|------------------3--3-------------------3--3----------------------------|
B|------------------3--3-------------------4--4----------------------------|
G|----5--4--3-------3--3--------3--4--5----5--5----------------------------|
D|-------------5-------------5---------------------------------------------|
A|-------------------------------------------------------------------------|
E|-------------------------------------------------------------------------|

while you tried to hide

Gtr.1


e|-------------------3--3-------------------3--3---------------------------|
B|-------------------4--4-------------------4--4---------------------------|
G|-------3--4--5-----5--5--------3--4--5----5--5---------------------------|
D|----5-----------------------5--------------------------------------------|
A|-------------------------------------------------------------------------|
E|-------------------------------------------------------------------------|

| When the stars came out
|
|Gtr.2


e|-------------------------------------------------------------------------|
B|--------------------------8---------------------------8------------------|
G|--------------8p7-8p7-8p7---8p7-8---------8p7-8p7-8p7---8p7-8------------|
D|-------------------------------------------------------------------------|
A|-------------------------------------------------------------------------|
E|-------------------------------------------------------------------------|

Gtr.1


e|------------------3--3-------------------3--3----------------------------|
B|------------------3--3-------------------4--4----------------------------|
G|----5--4--3-------3--3--------3--4--5----5--5----------------------------|
D|-------------5-------------5---------------------------------------------|
A|-------------------------------------------------------------------------|
E|-------------------------------------------------------------------------|

| they would call our names
|
|Gtr.2


e|-------------------------------------------------------------------------|
B|---------------------------6-------------------------8-------------------|
G|---------------7p5-7p5-7p5---7p5-7-------8p7-8p7-8p7---8p7-8-------------|
D|-------------------------------------------------------------------------|
A|-------------------------------------------------------------------------|
E|-------------------------------------------------------------------------|

Gtr.1


e|-------------------3--3-------------------3--3---------------------------|
B|-------------------4--4-------------------4--4---------------------------|
G|-------3--4--5-----5--5--------3--4--5----5--5---------------------------|
D|----5-----------------------5--------------------------------------------|
A|-------------------------------------------------------------------------|
E|-------------------------------------------------------------------------|

| We tried to pretend
|
|Gtr.2


e|-------------------------------------------------------------------------|
B|--------------------------8---------------------------8------------------|
G|--------------8p7-8p7-8p7---8p7-8---------8p7-8p7-8p7---8p7-8------------|
D|-------------------------------------------------------------------------|
A|-------------------------------------------------------------------------|
E|-------------------------------------------------------------------------|

Gtr.1 Cm


e|------------------3--3---------------------------------------------------|
B|------------------3--3---------------------------------------------------|
G|----5--4--3-------3--3---------------------------------------------------|
D|-------------5-----------------------------------------------------------|
A|-----------------------------------------15-15-15-15--13-13-13-13------|
E|-------------------------------------------------------------------------|

| That we never heard a thing
|
|Gtr.2


e|-------------------------------------------------------------------------|
B|---------------------------6---------------------------------------------|
G|---------------7p5-7p5-7p5---7p5-7---------------------------------------|
D|-------------------------------------------------------------------------|
A|-------------------------------------------------------------------------|
E|-------------------------------------------------------------------------|

[A#/Bb]


e|-------------------------------------------------------------------------|
B|-------------------------------------------------------------------------|
G|-------------------------------------------------------------------------|
D|-------------------------------------------------------------------------|
A|--11-11-11-11--10-10-10-10--13-13-13-13--11-11-11-11--10-10-10-10---|
E|-------------------------------------------------------------------------|

Fast Picking

[G#/Ab]


e|-------------------------------------------------------------------------|
B|-------------------------------------------------------------------------|
G|-------------------------------------------------------------------------|
D|-------------------------------------------------------------------------|
A|--8-8-8-8--11-11-11-11--10-10-10-10--8-8-8-8--6-6-6-6--10-10-10-10--|
E|-------------------------------------------------------------------------|

Cm


e|--------------------------------------3----------------------------------|
B|--------------------------------------4----------------------------------|
G|--------------------------------------5----------------------------------|
D|--------------------------------------5----------------------------------|
A|---8-8-8-8--6-6-6-6--5-5-5-5------3----------------------------------|
E|-------------------------------------------------------------------------|

Remember when we could see

Gm Cm Cm


e|----3-----------------------3--------------------3-----------------------|
B|----3-----------------------4--------------------4-----------------------|
G|----3-----------------------5--------------------5-----------------------|
D|----5-----------------------5--------------------5-----------------------|
A|----5-----------------------3--------------------3-----------------------|
E|----3--------------------------------------------------------------------|

Things as they were meant to be, I’ll get my gun and shoot

Gm Cm


e|---------------3---------------------3-----------------------------------|
B|---------------3---------------------4-----------------------------------|
G|---------------3---------------------5-----------------------------------|
D|---------------5---------------------5-----------------------------------|
A|---------------5---------------------3-----------------------------------|
E|---------------3---------------------------------------------------------|

you down, you will hit the ground.

SOLO:

Gtr.1


e|-------------------3--3-------------------3--3---------------------------|
B|-------------------4--4-------------------4--4---------------------------|
G|-------3--4--5-----5--5--------3--4--5----5--5---------------------------|
D|----5-----------------------5--------------------------------------------|
A|-------------------------------------------------------------------------|
E|-------------------------------------------------------------------------|

|
|
|Gtr.2


e|-------------------------------------------------------------------------|
B|-------------------------------------------------------------------------|
G|-------------------------------------12-12-12-12-12-12-/-----------------|
D|------------10-10-10-10-10-10/-13-13-------------------------------------|
A|-------------------------------------------------------------------------|
E|-------------------------------------------------------------------------|

Fast Picking

Gtr.1


e|------------------3--3-------------------3--3----------------------------|
B|------------------3--3-------------------4--4----------------------------|
G|----5--4--3-------3--3--------3--4--5----5--5----------------------------|
D|-------------5-------------5---------------------------------------------|
A|-------------------------------------------------------------------------|
E|-------------------------------------------------------------------------|

|
|
|Gtr.2


e|-------------------------------------------------------------------------|
B|-------------------------------------------------------------------------|
G|----13-13--10-10-10-10-10-10-/-12-12------------------------------------|
D|--------------------------------------10-10-10-10-10-10--8-8-/----------|
A|-------------------------------------------------------------------------|
E|-------------------------------------------------------------------------|

Gtr.1


e|-------------------3--3-------------------3--3---------------------------|
B|-------------------4--4-------------------4--4---------------------------|
G|-------3--4--5-----5--5--------3--4--5----5--5---------------------------|
D|----5-----------------------5--------------------------------------------|
A|-------------------------------------------------------------------------|
E|-------------------------------------------------------------------------|

|
|
|Gtr.2


e|-------------------------------------------------------------------------|
B|-------------------------------------------------------------------------|
G|--------------------------------------12-12-12-12-12-12-/----------------|
D|------------10-10-10-10-10-10-/-13-13------------------------------------|
A|-------------------------------------------------------------------------|
E|-------------------------------------------------------------------------|

Fast Picking

Gtr.1


e|------------------3--3-------------------3--3----------------------------|
B|------------------3--3-------------------4--4----------------------------|
G|----5--4--3-------3--3--------3--4--5----5--5----------------------------|
D|-------------5-------------5---------------------------------------------|
A|-------------------------------------------------------------------------|
E|-------------------------------------------------------------------------|

|
|
|Gtr.2


e|-------------------------------------------------------------------------|
B|-------------------------------------------------------------------------|
G|----13-13-/-15-15-15-15-15-15--10-10------------------------------------|
D|--------------------------------------10-10-10-10-10-10--8-8------------|
A|-------------------------------------------------------------------------|
E|-------------------------------------------------------------------------|

Gtr.1 Cm


e|--------3----------------------3--3-------------------3--3---------------|
B|--------4----------------------3--3-------------------4--4---------------|
G|--------5----------------------3--3--------3--4--5----5--5---------------|
D|--------5-------------------------------5--------------------------------|
A|--------3----------------------------------------------------------------|
E|-------------------------------------------------------------------------|

| Now I am so vain, Now I am so tired
|
|Gtr.2


e|-------------------------------------------------------------------------|
B|------------------------------------------6---------------------8--------|
G|--------10~-------------------7p5-7p5-7p5---7p5-7---8p7-8p7-8p7---8p7-8--|
D|-------------------------------------------------------------------------|
A|-------------------------------------------------------------------------|
E|-------------------------------------------------------------------------|

Gtr.1


e|-------------------3--3-------------------3--3---------------------------|
B|-------------------4--4-------------------4--4---------------------------|
G|-------3--4--5-----5--5--------3--4--5----5--5---------------------------|
D|----5-----------------------5--------------------------------------------|
A|-------------------------------------------------------------------------|
E|-------------------------------------------------------------------------|

| Well looking at my bedroom walls
|
|Gtr.2


e|-------------------------------------------------------------------------|
B|--------------------------8---------------------------8------------------|
G|--------------8p7-8p7-8p7---8p7-8---------8p7-8p7-8p7---8p7-8------------|
D|-------------------------------------------------------------------------|
A|-------------------------------------------------------------------------|
E|-------------------------------------------------------------------------|

Gtr.1


e|------------------3--3-------------------3--3----------------------------|
B|------------------3--3-------------------4--4----------------------------|
G|----5--4--3-------3--3--------3--4--5----5--5----------------------------|
D|-------------5-------------5---------------------------------------------|
A|-------------------------------------------------------------------------|
E|-------------------------------------------------------------------------|

| I fail to feel inspired
|
|Gtr.2


e|-------------------------------------------------------------------------|
B|---------------------------6-------------------------8-------------------|
G|---------------7p5-7p5-7p5---7p5-7-------8p7-8p7-8p7---8p7-8-------------|
D|-------------------------------------------------------------------------|
A|-------------------------------------------------------------------------|
E|-------------------------------------------------------------------------|

Gtr.1


e|-------------------3--3-------------------3--3---------------------------|
B|-------------------4--4-------------------4--4---------------------------|
G|-------3--4--5-----5--5--------3--4--5----5--5---------------------------|
D|----5-----------------------5--------------------------------------------|
A|-------------------------------------------------------------------------|
E|-------------------------------------------------------------------------|

| So knock up on my door
|
|Gtr.2


e|-------------------------------------------------------------------------|
B|--------------------------8---------------------------8------------------|
G|--------------8p7-8p7-8p7---8p7-8---------8p7-8p7-8p7---8p7-8------------|
D|-------------------------------------------------------------------------|
A|-------------------------------------------------------------------------|
E|-------------------------------------------------------------------------|

Gtr.1


e|------------------3--3-------------------3--3----------------------------|
B|------------------3--3-------------------4--4----------------------------|
G|----5--4--3-------3--3--------3--4--5----5--5----------------------------|
D|-------------5-------------5---------------------------------------------|
A|-------------------------------------------------------------------------|
E|-------------------------------------------------------------------------|

| And I promise this time
|
|Gtr.2


e|-------------------------------------------------------------------------|
B|---------------------------6-------------------------8-------------------|
G|---------------7p5-7p5-7p5---7p5-7-------8p7-8p7-8p7---8p7-8-------------|
D|-------------------------------------------------------------------------|
A|-------------------------------------------------------------------------|
E|-------------------------------------------------------------------------|

Gtr.1


e|-------------------3--3-------------------3--3---------------------------|
B|-------------------4--4-------------------4--4---------------------------|
G|-------3--4--5-----5--5--------3--4--5----5--5---------------------------|
D|----5-----------------------5--------------------------------------------|
A|-------------------------------------------------------------------------|
E|-------------------------------------------------------------------------|

| When I’m counting to one hundred
|
|Gtr.2


e|-------------------------------------------------------------------------|
B|--------------------------8---------------------------8------------------|
G|--------------8p7-8p7-8p7---8p7-8---------8p7-8p7-8p7---8p7-8------------|
D|-------------------------------------------------------------------------|
A|-------------------------------------------------------------------------|
E|-------------------------------------------------------------------------|

Gtr.1 Cm


e|------------------3--3---------------------------------------------------|
B|------------------3--3---------------------------------------------------|
G|----5--4--3-------3--3---------------------------------------------------|
D|-------------5-----------------------------------------------------------|
A|-----------------------------------------15-15-15-15--13-13-13-13------|
E|-------------------------------------------------------------------------|

| I will shut my eyes
|
|Gtr.2


e|-------------------------------------------------------------------------|
B|---------------------------6---------------------------------------------|
G|---------------7p5-7p5-7p5---7p5-7---------------------------------------|
D|-------------------------------------------------------------------------|
A|-------------------------------------------------------------------------|
E|-------------------------------------------------------------------------|

[A#/Bb]


e|-------------------------------------------------------------------------|
B|-------------------------------------------------------------------------|
G|-------------------------------------------------------------------------|
D|-------------------------------------------------------------------------|
A|--11-11-11-11--10-10-10-10--13-13-13-13--11-11-11-11--10-10-10-10---|
E|-------------------------------------------------------------------------|

Fast Picking

[G#/Ab]


e|-------------------------------------------------------------------------|
B|-------------------------------------------------------------------------|
G|-------------------------------------------------------------------------|
D|-------------------------------------------------------------------------|
A|--8-8-8-8--11-11-11-11--10-10-10-10--8-8-8-8--6-6-6-6--10-10-10-10--|
E|-------------------------------------------------------------------------|

Cm


e|--------------------------------------3----------------------------------|
B|--------------------------------------4----------------------------------|
G|--------------------------------------5----------------------------------|
D|--------------------------------------5----------------------------------|
A|---8-8-8-8--6-6-6-6--5-5-5-5------3----------------------------------|
E|-------------------------------------------------------------------------|

Remember when we could see

Gm Cm Cm


e|----3-----------------------3--------------------3-----------------------|
B|----3-----------------------4--------------------4-----------------------|
G|----3-----------------------5--------------------5-----------------------|
D|----5-----------------------5--------------------5-----------------------|
A|----5-----------------------3--------------------3-----------------------|
E|----3--------------------------------------------------------------------|

Things as they were meant to be, I’ll get my gun and shoot

Gm Cm


e|---------------3---------------------3-----------------------------------|
B|---------------3---------------------4-----------------------------------|
G|---------------3---------------------5-----------------------------------|
D|---------------5---------------------5-----------------------------------|
A|---------------5---------------------3-----------------------------------|
E|---------------3---------------------------------------------------------|

| you down, you will hit the ground.
|
|Bass


G|-------------------------------------------------------------------------|
D|-------------------------------------------------------------------------|
A|--------------------------------------3----3--------3----3-----3---------|
E|----------------------------------------------3--3----------3------------|

Gtr.1 Gm Cm


e|--------3-----------------------------3----------------------------------|
B|--------3-----------------------------4----------------------------------|
G|--------3-----------------------------5----------------------------------|
D|--------5-----------------------------5----------------------------------|
A|--------5-----------------------------3----------------------------------|
E|--------3----------------------------------------------------------------|

|
|
|Gtr.2


e|-------------------------------------------------------------------------|
B|-------------------------------------------------------------------------|
G|------------------------------------------------------------8--7~--------|
D|-------------------------------------------------------------------------|
A|-------------------------------------------------------------------------|
E|-------------------------------------------------------------------------|

|
|
|Bass


G|-------------------------------------------------------------------------|
D|-------------------------------------------------------------------------|
A|--------6----6--------5----5-----5----3----3--------3----3-----3---------|
E|----------------6--6----------6---------------3--3----------3------------|

Gtr.1 Gm Cm


e|--------3-----------------------------3----------------------------------|
B|--------3-----------------------------4----------------------------------|
G|--------3-----------------------------5----------------------------------|
D|--------5-----------------------------5----------------------------------|
A|--------5-----------------------------3----------------------------------|
E|--------3----------------------------------------------------------------|

|
|
|Gtr.2


e|-------------------------------------------------------------------------|
B|-------------------------------------------------------------------------|
G|--------------------------3~---------------------------------------------|
D|-----------------------5-------------------------------------------------|
A|-------------------------------------------------------------------------|
E|-------------------------------------------------------------------------|

| Postcards won’t you write,
|
|Bass


G|-------------------------------------------------------------------------|
D|-------------------------------------------------------------------------|
A|--------6----6--------5----5-----5----3----3--------3----3-----3---------|
E|----------------6--6----------6---------------3--3----------3------------|

Gtr.1 Gm Cm


e|--------3-----------------------------3----------------------------------|
B|--------3-----------------------------4----------------------------------|
G|--------3-----------------------------5----------------------------------|
D|--------5-----------------------------5----------------------------------|
A|--------5-----------------------------3----------------------------------|
E|--------3----------------------------------------------------------------|

| I don’t want to be alone tonight, Postcards won’t you write,
|
|Gtr.2


e|-------------------------------------------------------------------------|
B|-------------------------------------------------------------------------|
G|------------------------------------------------------------8--7~--------|
D|-------------------------------------------------------------------------|
A|-------------------------------------------------------------------------|
E|-------------------------------------------------------------------------|

|
|
|Bass


G|-------------------------------------------------------------------------|
D|-------------------------------------------------------------------------|
A|--------6----6--------5----5--5-------3----3--------3----3-----3---------|
E|----------------6--6-------------6------------3--3----------3------------|

Gtr.1 Gm Cm


e|--------3-----------------------------3----------------------------------|
B|--------3-----------------------------4----------------------------------|
G|--------3-----------------------------5----------------------------------|
D|--------5-----------------------------5----------------------------------|
A|--------5-----------------------------3----------------------------------|
E|--------3----------------------------------------------------------------|

| I don’t want to be alone, Postcards won’t you write,
|
|Gtr.2


e|-------------------------------------------------------------------------|
B|-------------------------------------------------------------------------|
G|--------------------------3~---------------------------------------------|
D|-----------------------5-------------------------------------------------|
A|-------------------------------------------------------------------------|
E|-------------------------------------------------------------------------|

|
|
|Bass


G|-------------------------------------------------------------------------|
D|-------------------------------------------------------------------------|
A|--------6----6--------5----5-----5----3----3--------3----3-----3---------|
E|----------------6--6----------6---------------3--3----------3------------|

Gtr.1 Gm Cm


e|--------3-----------------------------3----------------------------------|
B|--------3-----------------------------4----------------------------------|
G|--------3-----------------------------5----------------------------------|
D|--------5-----------------------------5----------------------------------|
A|--------5-----------------------------3----------------------------------|
E|--------3----------------------------------------------------------------|

| I don’t want to be alone tonight, Postcards won’t you write,
|
|Gtr.2


e|-------------------------------------------------------------------------|
B|-------------------------------------------------------------------------|
G|------------------------------------------------------------8--7~--------|
D|-------------------------------------------------------------------------|
A|-------------------------------------------------------------------------|
E|-------------------------------------------------------------------------|

|
|
|Bass


G|-------------------------------------------------------------------------|
D|-------------------------------------------------------------------------|
A|--------6----6--------5----5--5-------3----3--------3----3-----3---------|
E|----------------6--6-------------6------------3--3----------3------------|

Gtr.1 Gm Cm


e|--------3-----------------------------3----------------------------------|
B|--------3-----------------------------4----------------------------------|
G|--------3-----------------------------5----------------------------------|
D|--------5-----------------------------5----------------------------------|
A|--------5-----------------------------3----------------------------------|
E|--------3----------------------------------------------------------------|

| I don’t want to be alone, Postcards won’t you write,
|
|Gtr.2


e|-------------------------------------------------------------------------|
B|-------------------------------------------------------------------------|
G|--------------------------3~---------------------------------------------|
D|-----------------------5-------------------------------------------------|
A|-------------------------------------------------------------------------|
E|-------------------------------------------------------------------------|

|
|
|Bass


G|-------------------------------------------------------------------------|
D|-------------------------------------------------------------------------|
A|--------6----6--------5----5-----5----3----3--------3----3-----3---------|
E|----------------6--6----------6---------------3--3----------3------------|

Gtr.1 Gm Cm


e|--------3-----------------------------3----------------------------------|
B|--------3-----------------------------4----------------------------------|
G|--------3-----------------------------5----------------------------------|
D|--------5-----------------------------5----------------------------------|
A|--------5-----------------------------3----------------------------------|
E|--------3----------------------------------------------------------------|

| I don’t want to be alone tonight, Postcards won’t you write,
|
|Gtr.2


e|-------------------------------------------------------------------------|
B|-------------------------------------------------------------------------|
G|----------------------------8--7~--------------------------8--7~---------|
D|-------------------------------------------------------------------------|
A|-------------------------------------------------------------------------|
E|-------------------------------------------------------------------------|

|
|
|Bass


G|-------------------------------------------------------------------------|
D|-------------------------------------------------------------------------|
A|--------6----6--------5----------5----3----3--------3----3-----3---------|
E|----------------6--6-------6--6---------------3--3----------3------------|

Gtr.1 Gm Cm


e|--------3-----------------------------3----------------------------------|
B|--------3-----------------------------4----------------------------------|
G|--------3-----------------------------5----------------------------------|
D|--------5-----------------------------5----------------------------------|
A|--------5-----------------------------3----------------------------------|
E|--------3----------------------------------------------------------------|

| I don’t want to be alone,
|
|Gtr.2


e|-------------------------------------------------------------------------|
B|-------------------------------------------------------------------------|
G|-------------------------------------------------------------------------|
D|-------------------------------------------------------------------------|
A|-------------------------------------------------------------------------|
E|-------------------------------------------------------------------------|

|
|
|Bass


G|-------------------------------------------------------------------------|
D|-------------------------------------------------------------------------|
A|--------6----6--------5----5-----5----3----------------------------------|
E|----------------6--6----------6------------------------------------------|

SOLO:

Gtr.1 CmCmCmCmCmCmCmCmCmCmCmCmCmCmCmCm


e|------------3--3--3--3--3--3--3--3--3--3--3--3--3--3--3--3---------------|
B|------------4--4--4--4--4--4--4--4--4--4--4--4--4--4--4--4---------------|
G|------------5--5--5--5--5--5--5--5--5--5--5--5--5--5--5--5---------------|
D|------------5--5--5--5--5--5--5--5--5--5--5--5--5--5--5--5---------------|
A|------------3--3--3--3--3--3--3--3--3--3--3--3--3--3--3--3---------------|
E|-------------------------------------------------------------------------|

|
|
|Gtr.2


e|-------------------------------------------------------------------------|
B|-------------------------------------------------------------------------|
G|-------------------------------------12-12-12-12-12-12-/-----------------|
D|------------10-10-10-10-10-10/-13-13-------------------------------------|
A|-------------------------------------------------------------------------|
E|-------------------------------------------------------------------------|

Fast Picking

Gtr.1
CmCmGm Gm Gm Gm Gm Gm Gm Gm Gm CmCmCmCmCmCmCmCmCm


e|----3--3--3--3--3--3--3--3--3--3--3--3--3--3--3--3--3--3--3--3-----------|
B|----4--4--3--3--3--3--3--3--3--3--3--4--4--4--4--4--4--4--4--4-----------|
G|----5--5--3--3--3--3--3--3--3--3--3--5--5--5--5--5--5--5--5--5-----------|
D|----5--5--5--5--5--5--5--5--5--5--5--5--5--5--5--5--5--5--5--5-----------|
A|----3--3--5--5--5--5--5--5--5--5--5--3--3--3--3--3--3--3--3--3-----------|
E|----------3--3--3--3--3--3--3--3--3--------------------------------------|

|
|
|Gtr.2


e|-------------------------------------------------------------------------|
B|-------------------------------------------------------------------------|
G|----13-13--10-10-10-10-10-10-/-12-12------------------------------------|
D|--------------------------------------10-10-10-10-10-10--8-8-/----------|
A|-------------------------------------------------------------------------|
E|-------------------------------------------------------------------------|

Gtr.1 CmCmCmCmCmCmCmCmCmCmCmCmCmCmCmCm


e|------------3--3--3--3--3--3--3--3--3--3--3--3--3--3--3--3---------------|
B|------------4--4--4--4--4--4--4--4--4--4--4--4--4--4--4--4---------------|
G|------------5--5--5--5--5--5--5--5--5--5--5--5--5--5--5--5---------------|
D|------------5--5--5--5--5--5--5--5--5--5--5--5--5--5--5--5---------------|
A|------------3--3--3--3--3--3--3--3--3--3--3--3--3--3--3--3---------------|
E|-------------------------------------------------------------------------|

|
|
|Gtr.2


e|-------------------------------------------------------------------------|
B|-------------------------------------------------------------------------|
G|--------------------------------------12-12-12-12-12-12-/----------------|
D|------------10-10-10-10-10-10-/-13-13------------------------------------|
A|-------------------------------------------------------------------------|
E|-------------------------------------------------------------------------|

Gtr.1
CmCmGm Gm Gm Gm Gm Gm Gm Gm Gm CmCmCmCmCmCmCm


e|----3--3--3--3--3--3--3--3--3--3--3--3--3--3--3--3--3--3-----------------|
B|----4--4--3--3--3--3--3--3--3--3--3--4--4--4--4--4--4--4-----------------|
G|----5--5--3--3--3--3--3--3--3--3--3--5--5--5--5--5--5--5-----------------|
D|----5--5--5--5--5--5--5--5--5--5--5--5--5--5--5--5--5--5-----------------|
A|----3--3--5--5--5--5--5--5--5--5--5--3--3--3--3--3--3--3-----------------|
E|----------3--3--3--3--3--3--3--3--3--------------------------------------|

|
|
|Gtr.2


e|-------------------------------------------------------------------------|
B|-------------------------------------------------------------------------|
G|----13-13-/-15-15-15-15-15-15--10-10------------------------------------|
D|--------------------------------------10-10-10-10-10-10------------------|
A|-------------------------------------------------------------------------|
E|-------------------------------------------------------------------------|

Gtr.1 CmCmCmCmCmCmCmCmCmCmCmCmCmCmCmCm


e|------------3--3--3--3--3--3--3--3--3--3--3--3--3--3--3--3---------------|
B|------------4--4--4--4--4--4--4--4--4--4--4--4--4--4--4--4---------------|
G|------------5--5--5--5--5--5--5--5--5--5--5--5--5--5--5--5---------------|
D|------------5--5--5--5--5--5--5--5--5--5--5--5--5--5--5--5---------------|
A|------------3--3--3--3--3--3--3--3--3--3--3--3--3--3--3--3---------------|
E|-------------------------------------------------------------------------|

|
|
|Gtr.2


e|-------------------------------------------------------------------------|
B|-------------------------------------------------------------------------|
G|------------17-17-17-17-17-17--15-15--12-12-12-12-12-12-/--------------|
D|-------------------------------------------------------------------------|
A|-------------------------------------------------------------------------|
E|-------------------------------------------------------------------------|

Gtr.1
CmCmGm Gm Gm Gm Gm Gm Gm Gm Gm CmCmCmCmCmCmCmCmCm


e|----3--3--3--3--3--3--3--3--3--3--3--3--3--3--3--3--3--3--3--3-----------|
B|----4--4--3--3--3--3--3--3--3--3--3--4--4--4--4--4--4--4--4--4-----------|
G|----5--5--3--3--3--3--3--3--3--3--3--5--5--5--5--5--5--5--4--4-----------|
D|----5--5--5--5--5--5--5--5--5--5--5--5--5--5--5--5--5--5--5--5-----------|
A|----3--3--5--5--5--5--5--5--5--5--5--3--3--3--3--3--3--3--3--3-----------|
E|----------3--3--3--3--3--3--3--3--3--------------------------------------|

|
|
|Gtr.2


e|-------------------------------------------------------------------------|
B|-------------------------------------------------------------------------|
G|----13-13--15-15-15-15-15-15-/-12-12------------------------------------|
D|--------------------------------------10-10-10-10-10-10--8-8-/----------|
A|-------------------------------------------------------------------------|
E|-------------------------------------------------------------------------|

Gtr.1 CmCmCmCmCmCmCmCmCmCmCmCmCmCmCmCm


e|------------3--3--3--3--3--3--3--3--3--3--3--3--3--3--3--3---------------|
B|------------4--4--4--4--4--4--4--4--4--4--4--4--4--4--4--4---------------|
G|------------5--5--5--5--5--5--5--5--5--5--5--5--5--5--5--5---------------|
D|------------5--5--5--5--5--5--5--5--5--5--5--5--5--5--5--5---------------|
A|------------3--3--3--3--3--3--3--3--3--3--3--3--3--3--3--3---------------|
E|-------------------------------------------------------------------------|

|
|
|Gtr.2


e|-------------------------------------------------------------------------|
B|-------------------------------------------------------------------------|
G|--------------------------------------12-12-12-12-12-12-/----------------|
D|------------10-10-10-10-10-10-/-13-13------------------------------------|
A|-------------------------------------------------------------------------|
E|-------------------------------------------------------------------------|

Gtr.1
CmCmGm Gm Gm Gm Gm Gm Gm Gm Gm CmCmCmCmCmCmCmCmCm


e|----3--3--3--3--3--3--3--3--3--3--3--3--3--3--3--3--3--3--3--3-----------|
B|----4--4--3--3--3--3--3--3--3--3--3--4--4--4--4--4--4--4--4--4-----------|
G|----5--5--3--3--3--3--3--3--3--3--3--5--5--5--5--5--5--5--4--4-----------|
D|----5--5--5--5--5--5--5--5--5--5--5--5--5--5--5--5--5--5--5--5-----------|
A|----3--3--5--5--5--5--5--5--5--5--5--3--3--3--3--3--3--3--3--3-----------|
E|----------3--3--3--3--3--3--3--3--3--------------------------------------|

|
|
|Gtr.2


e|-------------------------------------------------------------------------|
B|-------------------------------------------------------------------------|
G|----13-13--10-10-10-10-10-10-/-12-12------------------------------------|
D|--------------------------------------10-10-10-10-10-10--8-8-/----------|
A|-------------------------------------------------------------------------|
E|-------------------------------------------------------------------------|

Gtr.1 CmCmCmCmCmCmCmCmCmCmCmCmCmCmCmCm


e|------------3--3--3--3--3--3--3--3--3--3--3--3--3--3--3--3---------------|
B|------------4--4--4--4--4--4--4--4--4--4--4--4--4--4--4--4---------------|
G|------------5--5--5--5--5--5--5--5--5--5--5--5--5--5--5--5---------------|
D|------------5--5--5--5--5--5--5--5--5--5--5--5--5--5--5--5---------------|
A|------------3--3--3--3--3--3--3--3--3--3--3--3--3--3--3--3---------------|
E|-------------------------------------------------------------------------|

| Remember when we could see
|
|Gtr.2


e|-------------------------------------------------------------------------|
B|-------------------------------------------------------------------------|
G|-------------------------------------12-12-12-12-12-12-/-----------------|
D|------------10-10-10-10-10-10/-13-13-------------------------------------|
A|-------------------------------------------------------------------------|
E|-------------------------------------------------------------------------|

Gtr.1
CmCmGm Gm Gm Gm Gm Gm Gm Gm Gm CmCmCmCmCmCmCmCmCm


e|----3--3--3--3--3--3--3--3--3--3--3--3--3--3--3--3--3--3--3--3-----------|
B|----4--4--3--3--3--3--3--3--3--3--3--4--4--4--4--4--4--4--4--4-----------|
G|----5--5--3--3--3--3--3--3--3--3--3--5--5--5--5--5--5--5--5--5-----------|
D|----5--5--5--5--5--5--5--5--5--5--5--5--5--5--5--5--5--5--5--5-----------|
A|----3--3--5--5--5--5--5--5--5--5--5--3--3--3--3--3--3--3--3--3-----------|
E|----------3--3--3--3--3--3--3--3--3--------------------------------------|

| Things as they were meant to be
|
|Gtr.2


e|-------------------------------------------------------------------------|
B|-------------------------------------------------------------------------|
G|----13-13--10-10-10-10-10-10-/-12-12------------------------------------|
D|--------------------------------------10-10-10-10-10-10--8-8-/----------|
A|-------------------------------------------------------------------------|
E|-------------------------------------------------------------------------|

Gtr.1 CmCmCmCmCmCmCmCmCmCmCmCmCmCmCmCm


e|------------3--3--3--3--3--3--3--3--3--3--3--3--3--3--3--3---------------|
B|------------4--4--4--4--4--4--4--4--4--4--4--4--4--4--4--4---------------|
G|------------5--5--5--5--5--5--5--5--5--5--5--5--5--5--5--5---------------|
D|------------5--5--5--5--5--5--5--5--5--5--5--5--5--5--5--5---------------|
A|------------3--3--3--3--3--3--3--3--3--3--3--3--3--3--3--3---------------|
E|-------------------------------------------------------------------------|

| You get your gun and shoot me down
|
|Gtr.2


e|-------------------------------------------------------------------------|
B|-------------------------------------------------------------------------|
G|------------

To play the most songs, including Cowboys and Indians by Milburn by ukulele, the most crucial basic ukulele chords to learn are C chord, D chord, G chord, and Em chord.
These set you up to play a a lot of songs, and each of them is easy to master.

Gravatar Image
Like to play Ukulele and Sudoku Game

Leave a Reply

Your email address will not be published. Required fields are marked *