Cooler Than Me by Mike Posner Ukulele Chords

Posted on

If you are searching for Cooler Than Me ukulele chords, you already visit to the right site.
You can play versatile instrument Cooler Than Me using ukulele or guitar.
This song by Mike Posner can also be played by that instruments.
=

Cooler Than Me chords has rhythm and included in 31 Minutes to Takeoff (2010) album.
You can also get other musical style, including jazz ukulele chords, country music ukulele chords, pop ukulele chords, world music ukulele chords, and rock ukulele chords here.

Cooler Than Me by Mike Posner Ukulele Chords


This is my first tab and its pretty damn accurate.
Those who say it should be Dm instead of D aren’t wrong.
Personally, I just think Acoustically, it sounds better with D, but, to each their own!

Here’s how I play it.

Mike Posner
Cooler Than Me

Standard Tuning

Chords Used:


||----6---------5----------3--------8-----||
||----8---------7----------3--------10----||
||----8---------7----------3--------10----||
||----8---------7----------5--------10----||
||----6---------5----------5--------8-----||
||----x---------x----------3--------x-----||

Chorus
If I could write you a song,
To make you fall in love,
I would already have you up under my arm.
I used up all my tricks,
I hope that you like this.
But you probably won’t, you think you’re cooler than me.

You got designer shades,
Just to hide your face and
You wear them around like,
You’re cooler than me.
But, you never say hey,
Or remember my name, and
It’s probably cause, you think you’re cooler than me.

Instrumental break


||6---6---x---5-------5---x-------|------------3-------------------|| x3
||8---8---x---7-------7---x-------|------------3----3--------------||
||8---8---x---7-------7---x-------|--------3---3----------3--------||
||8---8---x---7-------7---x-------|----5-------5-------------5-----||
||6---6---x---5-------5---x-------|--------------------------------||
||x---x---x---x-------x---x-------|3-------------------------------||


||6---6---x---6-------6---x-------|8---8---x---5-------5---x-------||
||8---8---x---8-------8---x-------|10--10--x---7-------7---x-------||
||8---8---x---8-------8---x-------|10--10--x---7-------7---x-------||
||8---8---x---8-------8---x-------|10--10--x---7-------7---x-------||
||6---6---x---6-------6---x-------|8---8---x---5-------5---x-------||
||x---x---x---x-------x---x-------|x---x---x---x-------x---x-------||

Verse 1
You got your high brow,
Shoes on your feet,
And you wear them around,
Like they aint shit.
But you don’t know,
The way that you look,
Eb F (strum once)
When your steps- Make- That- Much- Noise. . . Shh

Pre-chorus
I got you,
All figured out,
You need everyone’s eyes just to feel seen.
Girl, you’re so vain,
You probably think
that this song is about you. Don’t you? Don’t you?
( Tab from: http://www.guitartabs.cc/tabs/m/mike_posner/cooler_than_me_acoustic_crd.html )
Chorus
If I could write you a song,
To make you fall in love,
I would already have you up under my arm.
I used up all my tricks,
I hope that you like this.
But you probably won’t, You think you’re cooler than me.

You got designer shades,
Just to hide your face and
You wear them around like,
You’re cooler than me.
but you never say hey,
Or remember my name, and
It’s probably cause, you think you’re cooler than me.

Verse 2
You got your High Brow,
Switch in your walk,
And you don’t even look when you pass by.
But you don’t know,
The way that you look,
Eb F (strum once)
When your steps- Make- That- Much- Noise. . . Shh

Pre-chorus
See I got you,
All figured out,
You need everyone’s eyes just to feel seen.
Behind your Makeup,
Nobody knows who
You even are, who you think that you are

Bridge
Cause it sure seems (Cause it sure seems)
You got no doubt. (That you got no doubt.)
But we all see (We all see)
You got your head in the clouds

Chorus
If I could write you a song,
To make you fall in love,
I would already have you up under my arm.
I used up all my tricks,
I hope that you like this.
But you probably won’t, You think you’re cooler than me.

You got designer shades,
Just to hide your face and
You wear them around like,
You’re cooler than me.
And you never say hey,
Or remember my name. and
It’s probably cause, you think you’re cooler than me.

Instrumental Outro


||6---6---x---5-------5---x-------|------------3-------------------|| x3
||8---8---x---7-------7---x-------|------------3----3--------------||
||8---8---x---7-------7---x-------|--------3---3----------3--------||
||8---8---x---7-------7---x-------|----5-------5-------------5-----||
||6---6---x---5-------5---x-------|--------------------------------||
||x---x---x---x-------x---x-------|3-------------------------------||

Eb F (Hold)


||6---6---x---6-------6---x-------|8---8---x---5-------5-----------||
||8---8---x---8-------8---x-------|10--10--x---7-------7-----------||
||8---8---x---8-------8---x-------|10--10--x---7-------7-----------||
||8---8---x---8-------8---x-------|10--10--x---7-------7-----------||
||6---6---x---6-------6---x-------|8---8---x---5-------5-----------||
||x---x---x---x-------x---x-------|x---x---x---x-------x-----------||

Hope you guys like it! 🙂

To play the this songs, including Cooler Than Me by Mike Posner by ukulele, the most important basic ukulele chords to learn are C chord, D chord, G chord, and Em chord.
These set you up to play a ton of songs, and each of them is easy to master.

Gravatar Image
Like to play Ukulele and Sudoku Game

Leave a Reply

Your email address will not be published. Required fields are marked *