If you are searching for Mind’s Eye ukulele chords, you already visit to the right place.
You can play versatile instrument Mind’s Eye using ukulele or guitar.
This song by Wolfmother can also be played by that instruments.
=

Mind’s Eye chords has rhythm and included in Wolfmother (2005) album.
You can also get another musical genres, including jazz ukulele chords, country music ukulele chords, pop ukulele chords, world music ukulele chords, and rock ukulele chords here.

Mind’s Eye by Wolfmother Ukulele Chords


———————-

WOLFMOTHER – MINDS EYE

———————-

Ok this is the new kick ass song that i figured out while watching rage last night…i
dont have the song to listen to as the album is not out so i dont know how long to play
each part or the order of the song..

Intro

|—-12—-12—-12—-12—-12—-12—-12—-12-|
|-11—-11—-11—-11—-12—-12—-12—-12—-|
|————————————————-|
|————————————————-|
|————————————————-|
|————————————————-|
|—-12—-12—-12—-12—-12—-12—-12—-12-|
|-10—-10—-10—-10—-10—-10—-10—-10—-|
|————————————————-|
|————————————————-|
|————————————————-|
|————————————————-|

Verse:

|-5———–3———-1————————|
|-5———–3———-1————————|
|-5———–4———-2————————|
|-7———–5———-3————————|
|-7———–5———-3————————|
|-5———–3———-1————————|

Other Verse Part:

|—————————|
|—————————|
|—————————|
|-3–5–7–9–10-12–12–17-|
|-3–5–7–9–10-12–12–17-|
|-1–3–5–7–8–10–12–15-|

Chorus:

|————————–|
|————————–|
|-6——-11—9——–11-|
|-7——-12—10——-12-|
|-7——-12—10——-12-|
|-5——-10—8——–10-|

Im pretty sure thats all the guitar parts…

Keyboard solo: just major triad chords of the chorus…




ie:

|—————————————————-|
|-5–5–5–5—-10–10—-8—8—8—8—–10–10—|
|–6–6–6–6—-11–11—-9—9—9—9—–11–11–|
|—7–7–7–7—-12–12—-10–10–10–10—-12–12-|
|—————————————————-|
|—————————————————-|

To play the this songs, including Mind’s Eye by Wolfmother by ukulele, the most important basic ukulele chords to learn are C chord, D chord, G chord, and Em chord.
These set you up to play a a lot of songs, and each of them is easy to learn.

If you are searching for Apple Tree ukulele chords, you already visit to the right place.
You can play versatile instrument Apple Tree using ukulele or guitar.
This song by Wolfmother can also be played by that instruments.
=

Apple Tree chords has rhythm and included in Wolfmother (2005) album.
You can also find other musical genres, including jazz ukulele chords, country music ukulele chords, pop ukulele chords, world music ukulele chords, and rock ukulele chords here.

Apple Tree by Wolfmother Ukulele Chords


Wolfmother – Apple Tree

Standard Tuning:E,A,D,G,B,E

[00:00,00:07]

e|xxxxxxxxxxxxxxxxxxxxxxxxxxxxxx |xxxxxxxxxxxxxxxxxxxxxxxxxxxxxxxxxxxxxxxx |
B|xxxxxxxxxxxxxxxxxxxxxxxxxxxxxx |xxxxxxxxxxxxxxxxxxxxxxxxxxxxxxxxxxxxxxxx |


G|----------------------------(7)|--------------------------------------(7)| x2
D|-----------------------------8 |---------------------------------------8 |
A|-----------------------------8 |---------------------------------------8 |
E|-----------------------------6 |---------------------------------------6 |

|Dear Sir, can you remember me, | I’m the one who picked the apple tree.

[00:07,00:15]

(note: bend down last chord as mentioned ‘^’)
E|xxxxxxxxxxxxxx|
B|xxxxxxxxxxxxxx|
G|xxxxxxxxxxxxxx| x4


D|8-8-8-8-8-8--8|
A|8-8-8-8-8-8--6|
E|6-6-6-6-6-6--x|

^

[00:15,00:23]

e| xxxxxxxxxxxxxxxxxxxxxxxxxxxxxx |xxxxxxxxxxxxxxxxxxxxxxxxxxxxxxxxxxxxxxxx |
B| xxxxxxxxxxxxxxxxxxxxxxxxxxxxxx |xxxxxxxxxxxxxxxxxxxxxxxxxxxxxxxxxxxxxxxx |


G|(7)--------------------------(7)|--------------------------------------(7)|
D| 8----------------------------8 |---------------------------------------8 |
A| 8----------------------------8 |---------------------------------------8 |
E| 6----------------------------6 |---------------------------------------6 |

|Dear Sir, can you remember me, | I’m the one who picked the apple tree.

e|xxxxxxxxxxxxxxxxxxxxxxxxxxxxxx |xxxxxxxxxxxxxxxxxxxxxxxxxxxxxxxxxxxxxxxx |
B|xxxxxxxxxxxxxxxxxxxxxxxxxxxxxx |xxxxxxxxxxxxxxxxxxxxxxxxxxxxxxxxxxxxxxxx |
G|xxxxxxxxxxxxxxxxxxxxxxxxxxxx(7)|xxxxxxxxxxxxxxxxxxxxxxxxxxxxxxxxxxxxxx(7)|


D|-----------------------------8 |---------------------------------------8 |
A|-----------------------------8 |---------------------------------------8 |
E|-----------------------------6 |---------------------------------------6 |

|Dear Sir, can you remember me | I’m the one who picked the apple tree.

[00:23,00:30]

(note: bend down last chord as mentioned ‘^’)
E|xxxxxxxxxxxxxx|
B|xxxxxxxxxxxxxx|
G|xxxxxxxxxxxxxx|x4


D|8-8-8-8-8-8--8|
A|8-8-8-8-8-8--6|
E|6-6-6-6-6-6--x|

^

[00:30,01:02]

E|x| E|xxxx|
B|x| B|xxxx|
G|x| G|xxxx| x9
D|8| D|6–8|
A|8| A|6–8|
E|6| then E|4–6| also let the same chord ring

[01:02,01:18]


e|-----------------------------------|
B|-----------------------------------|
G|-----------------------------------|
D|11-11-11-11-11-11-11-11-11-11--6--8| x 3 (The third time the last chord is quickly released)
A|11-11-11-11-11-11-11-11-11-11--6--8| (and first chord is played 10 times, atleast i think :-)
E|9--9--9--9--9--9--9--9--9--9---4--6|

[01:18,01:26]

e|xxxxxxxxxxxxxxxxxxxxxxxxxxxxxx |xxxxxxxxxxxxxxxxxxxxxxxxxxxxxxxxxxxxxxxx |
B|xxxxxxxxxxxxxxxxxxxxxxxxxxxxxx |xxxxxxxxxxxxxxxxxxxxxxxxxxxxxxxxxxxxxxxx |


G|----------------------------(7)|--------------------------------------(7)| x2
D|-----------------------------8 |---------------------------------------8 |
A|-----------------------------8 |---------------------------------------8 |
E|-----------------------------6 |---------------------------------------6 |

|Dear Sir, can you remember me, | I’m the one who picked the apple tree.

[01:26,01:34]

(note: bend down last chord as mentioned ‘^’)
E|xxxxxxxxxxxxxx|
B|xxxxxxxxxxxxxx|
G|xxxxxxxxxxxxxx|x4


D|8-8-8-8-8-8--8|
A|8-8-8-8-8-8--6|
E|6-6-6-6-6-6--x|

^

[01:34,01:41]

e| xxxxxxxxxxxxxxxxxxxxxxxxxxxxxx |xxxxxxxxxxxxxxxxxxxxxxxxxxxxxxxxxxxxxxxx |
B| xxxxxxxxxxxxxxxxxxxxxxxxxxxxxx |xxxxxxxxxxxxxxxxxxxxxxxxxxxxxxxxxxxxxxxx |


G|(7)--------------------------(7)|--------------------------------------(7)|
D| 8----------------------------8 |---------------------------------------8 |
A| 8----------------------------8 |---------------------------------------8 |
E| 6----------------------------6 |---------------------------------------6 |

|Dear Sir, can you remember me, | I’m the one who picked the apple tree.

e|xxxxxxxxxxxxxxxxxxxxxxxxxxxxxx |xxxxxxxxxxxxxxxxxxxxxxxxxxxxxxxxxxxxxxxx |
B|xxxxxxxxxxxxxxxxxxxxxxxxxxxxxx |xxxxxxxxxxxxxxxxxxxxxxxxxxxxxxxxxxxxxxxx |
G|xxxxxxxxxxxxxxxxxxxxxxxxxxxx(7)|xxxxxxxxxxxxxxxxxxxxxxxxxxxxxxxxxxxxxx(7)|


D|-----------------------------8 |---------------------------------------8 |
A|-----------------------------8 |---------------------------------------8 |
E|-----------------------------6 |---------------------------------------6 |

|Dear Sir, can you remember me | I’m the one who picked the apple tree.

[01:41,02:17]

(note: bend down last chord as mentioned ‘^’)
E|xxxxxxxxxxxxxx|
B|xxxxxxxxxxxxxx|
G|xxxxxxxxxxxxxx|x4 let last chord tranfer to: e|x| and then continue with e|xxxx|


D|8-8-8-8-8-8--8| B|x| B|xxxx|
A|8-8-8-8-8-8--6| G|x| G|xxxx| x9
E|6-6-6-6-6-6--x| D|8| D|6--8|

^ A|8| A|6–8|
E|6| E|4–6|
[02:17,02:33]


e|-----------------------------------|
B|-----------------------------------|
G|-----------------------------------|
D|11-11-11-11-11-11-11-11-11-11--6--8| x 3 Then Transfer to:
A|11-11-11-11-11-11-11-11-11-11--6--8|
E|9--9--9--9--9--9--9--9--9--9---4--6|

[02:33,03,32]


e|-----------------| |--------------------|
B|-----------------| |--------------------|
G|-----------------|then|--------------------| x10 (note: after 3th time other guitar comes in with solo)
D|----------6h8-8--| |6/8------------6h8-8|
A|----4h6/8--------| |6/8------4/6h8------|
E|4h6--------------| |4/6--4/6------------|

Email me on : My_black_system@hotmail.com , Jensq !

To play the this songs, including Apple Tree by Wolfmother by ukulele, the most important basic ukulele chords to learn are C chord, D chord, G chord, and Em chord.
These set you up to play a ton of songs, and each of them is easy to learn.

If you are searching for Pilgrim ukulele chords, you already come to the right site.
You can play versatile instrument Pilgrim using ukulele or guitar.
This song by Wolfmother can also be played by that instruments.
=

Pilgrim chords has rhythm and included in Other Songs album.
You can also get another musical genres, including jazz ukulele chords, country music ukulele chords, pop ukulele chords, world music ukulele chords, and rock ukulele chords here.

Pilgrim by Wolfmother Ukulele Chords

Intro/Verse
[(E)] [(A)]

|——————| |————————————-|
|——————| |————————————-|
|——————|play this |————————————-|
|——————|several times |-5-7-7-7-7-7-7-7-5-7-7-7-7-7-7-7b8r7-|
|-5-7-7-7-7-7-7-7–|throughout |-0—————0————-0—–|
|-0—————-|intro/verse |————————————-|

variation halfway through verse
Interlude
(N.C.)

|————————————————–|
|————————————————–|
|————————————————–|Play 2x
|———————————————-5—|
|-5h7-5————-5——5h7-5————-5—7-|
|——–7-5–3-5-7—3-0———7-5–3-5-7——-|

Chorus
(A) (G) (N.C.)

|————————————————————|
|————————————————————|
|————————————————————|
|-7-7-7-7-7-7-7-7-5-5-5-5-5-5-5-5———————5——|
|-7-7-7-7-7-7-7-7-5-5-5-5-5-5-5-5-5h7-5————-5—7—-|
|-5-5-5-5-5-5-5-5-3-3-3-3-3-3-3-3——–7-5–3-5-7———-|
|—————————————————————–|
|—————————————————————–|
|—————————————————————–|
|-7-7-7-7-7-7-7-7-5-5-5-5-5-5-5-5-9-9-9-9-9-9-9-9-8-8-8-8-7-7-5-5-|
|-7-7-7-7-7-7-7-7-5-5-5-5-5-5-5-5-9-9-9-9-9-9-9-9-8-8-8-8-7-7-5-5-|
|-5-5-5-5-5-5-5-5-3-3-3-3-3-3-3-3-7-7-7-7-7-7-7-7-6-6-6-6-5-5-3-3-|

Back to verse riff!!

Bridge

|——————————|
|——————————|
|——————————|Play 12x
|-2—-0———————–|
|-2—————————-|
|-0-3/—5-3-0-5-3-0-3b4——-|

Play second half of chorus

Solo
The wah-wah makes it too hard to decipher, so heres some licks that I could pick out.
scale is just E minor pentatonic.

e|————| |-15p12—-12-|
B|—-12h15—-| |——-15-12–|
G|-14b——–| |————-|

The Scale

|———————————-12-15-17-19-22-24-|
|—————————12-15——————–|
|——————–12-14—————————|
|————-12-14———————————-|
|—-10-12-14—————————————-|
|-12————————————————-|

To play the this songs, including Pilgrim by Wolfmother by ukulele, the most important basic ukulele chords to learn are C chord, D chord, G chord, and Em chord.
These set you up to play a a lot of songs, and each of them is easy to learn.