If you are searching for Nice Guys ukulele chords, you have visit to the right site.
You can play versatile instrument Nice Guys using ukulele or guitar.
This song by We Are Scientists can also be played by that instruments.
=

Nice Guys chords has rhythm and included in Barbara (2010) album.
You can also get another musical style, including jazz ukulele chords, country music ukulele chords, pop ukulele chords, world music ukulele chords, and rock ukulele chords here.

Nice Guys by We Are Scientists Ukulele Chords


Okay guys i see the normal version of this has been done and is very catchy so im
going to do the acoustic version to this video

http://www.youtube.com/watch?vB-17RPj1kp8&featurerelated

im not 100% with this it’s my 2nd tab and im doing it by ear so if there are any
mistakes or improvements please feel free to tell me

the names are not accurate i don’t think


-------------------------------------------------------------------------------

Nice Guys – We Are Scientists


-------------------------------------------------------------------------------

Tabbed by:ryand111
Email:razdaniels1@hotmail.com

Chords:
A maj A maj(2) A maj(3) B add9 A m(maj7) A


e|--9------9-----------(0)------x----5----------x--|
B|--10-----10----------2--------4----5----------x--|
G|--9------9-----------2--------4----6----------14-|
D|--x------11----------2--------4----7----------x--|
A|--x------x-----------4--------6----5----------12-|
E|--x------x-----------x--------x----5----------x--|

Intro: Amaj Amaj(2)

Your smart enough to make your mistakes
And act like you want’em
Walk off the residual pain
And forget how you got it
Nice guys finish last anyway
And that’s just the problem

If your the nice guy, act like the nice guy
If your the nice guy, act like the nice guy
If you want this, I want it more
If you want this, I want it more[Amaj(3)][Amaj(3)]
If you want this, I want it more then you
I want it more then you

[Amaj(2)]
Its fine to say this isn’t a game
When you’ve already lost it
Its pointless to go through it again,
So why even bother
You’ve gotta know there’s nothing to gain
And thats just the problem

If your the nice guy, act like the nice guy
If your the nice guy, act like the nice guy
If you want this, I want it more[Amaj(3)]
If you want this, I want it more[Amaj(3)][Amaj(3)]
If you want this, I want it more then you
I want it more then you

This isn’t a trick
[Am(maj7)]So stop over thinking everything
Just finish your drink
[Am(maj7)]And stop over thinking everything

If your the nice guy, act like the nice guy
If your the nice guy, act like the nice guy
A
If your the nice guy, act like the nice guy
A
If your the nice guy, act like the nice guy
If you want this, I want it more[Amaj(3)]
If you want this, I want it more[Amaj(3)][Amaj(3)]
If you want this, I want it more then you
I want it more then you
I want it more then you
I want it more then you

End on : Amaj Amaj(2)

It sounds good to me if i have got any of the chords wrong let me know and i will
change it rate and what not and have fun 🙂

To play the most songs, including Nice Guys by We Are Scientists by ukulele, the most crucial basic ukulele chords to learn are C chord, D chord, G chord, and Em chord.
These set you up to play a ton of songs, and each of them is easy to learn.

If you are searching for Rules Don’t Stop ukulele chords, you already come to the right place.
You can play versatile instrument Rules Don’t Stop using ukulele or guitar.
This song by We Are Scientists can also be played by that instruments.
=

Rules Don’t Stop chords has rhythm and included in Barbara (2010) album.
You can also find other musical genres, including jazz ukulele chords, country music ukulele chords, pop ukulele chords, world music ukulele chords, and rock ukulele chords here.

Rules Don’t Stop by We Are Scientists Ukulele Chords

After seeing another tab on here which was nowhere near i had to chord it out… enjoy.

(NOTE: in the video they dont play the Dm again after the Fmaj7/A but in other
videos iv seen they do and it sounds better)

CAPO 2!

the start for this video is just C, Em, Am, G with hammer ones and pull offs, and
with the ‘G’ slide the e and b string from 5 to 7. then its the Fmaj7/A chord
(shown below), and finally G.. then this starts…:

Fmaj7/A (incase you didnt

e—————————–0—| 0 know it, i dont
b-1—0—1—3—1—0—1——-| x2! 1 think thats the
g—2—2—2—2—2—2—2—2-| 2 right name for
d———————————| 3 the chord but
a———————————| 0 nevermind)
E———————————| x

Don’t be alarmed, it’s not the end of the world
If we’re b[Fmaj7/A]reaking the rules it’s fine
[Fmaj7/A]I disregard this kind of problem all the time

It’s not as if it’s gonna kill anyone
If there’s no [Fmaj7/A]victim then there’s no crime
[Fmaj7/A]Just draw another if you think we’ve crossed the line

[Fmaj7/A]Rules don’t stop me
Forget about it
Rules don’t stop me
We’ll get around it
[Fmaj7/A]Rules don’t stop me
Forget about it
Don’t stop me, don’t stop me

PLAY THE SAME FOR THE NEXT VERSE AND CHORUS

Although it may seem unconventional sometimes
Indescretion is worth a try
If you just play along I promise we’ll be fine
So leave your hang-ups back at the door
When you and I are down on the floor
Well you’ll know what to do about it

Rules don’t stop me
Forget about it
Rules don’t stop me
We’ll get around it
Rules don’t stop me
Forget about it
Don’t stop me, don’t stop me

Am x4 (or the picky bit at the start)

BRIDGE

[Fmaj7/A]It’s not as bad as they say
If this is such a mistake
Why does it make you so damn happy?
[Fmaj7/A]This is no time to behave
Let’s both get carried away
C-stop
If there’s a price to be paid
It won’t stop me

CHORUS

Rules don’t stop me
Forget about it
Rules don’t stop me
We’ll get around it
Rules don’t stop me
Forget about it
Don’t stop me, don’t stop me
They don’t stop me, they don’t stop me

To play the most songs, including Rules Don’t Stop by We Are Scientists by ukulele, the most crucial basic ukulele chords to learn are C chord, D chord, G chord, and Em chord.
These set you up to play a many of songs, and each of them is easy to master.

If you are searching for This Scene Is Dead ukulele chords, you have visit to the best site.
You can play versatile instrument This Scene Is Dead using ukulele or guitar.
This song by We Are Scientists can also be played by that instruments.
=

This Scene Is Dead chords has rhythm and included in With Love and Squalor (2005) album.
You can also get other musical style, including jazz ukulele chords, country music ukulele chords, pop ukulele chords, world music ukulele chords, and rock ukulele chords here.

This Scene Is Dead by We Are Scientists Ukulele Chords

Riff 1.


E-----------------------------------------------------|
B-----------------------------------------------------|
G-------------------------6-6-6-6-6-6-6-6-6-6-6-------|
D--------7-7-7-7-7-7-7-7-7----------------------------|
A-----------------------------------------------9-----|
E-----------------------------------------------------|

Riff 2.


E----------------------------------------------------------------------------|
B----------------------------------------------------------------------------|
G-------------------------6-6-4-4-2-2-1-1-----1-1-----2-2------1-1-------2-2-|
D-----7-7-7-7-7-7-7-7-7-7-----------------4-4-----4-4-----4-4--------4-4-----|
A----------------------------------------------------------------------------|
E----------------------------------------------------------------------------|

Riff 1.

This scene is dead, but I’m still restless
An hour or so until last call, I guess
I shouldn’t even be here, much less
Drinking myself into excess

Fill 1.


E-------------------------|
B------12-12--12----------|
G-------------------------|
D-------7--7---7----------|
A-------------------------|
E-------------------------|

I’m not going home till I’m done

Fill 2.



Chorus

Well come on, we can’t go on
Well come on, we can’t go on
Well come on, you can’t go home
The night is young
I’m blacking out
But it’s been fun

Riff 1. and add F#m on the 9th fret

Well everything’s another excuse
To keep from doing what I want too
Like I would really love to kiss you
But I guess I’m in no condition

Fill 1.

I’m not going home with no-one

Fill 2.

Chorus

Well come on, we can’t go on
Well come on, we can’t go on
Well come on, you can’t go home
The night is young
I’m blacking out
But it’s been fun

Pre Solo:


E----------------------------------------|
B--14-14-14-14-17-17-17-17---------------|
G--14-14-14-14-14-14-14-14---------------| Repeat 4x
D----------------------------------------|
A----------------------------------------|
E----------------------------------------|

Solo:


E------------16------------------14--------------12-----------------16--|
B--14--12----------12--14--12----------12--14-----------12--14----------|
G---------14----14------------14----14--------14----14----------14------|
D-----------------------------------------------------------------------|
A-----------------------------------------------------------------------|
E-----------------------------------------------------------------------|

repeat 4x

listen for timing

Fill 1.

Well I said that’s it I’m not going home with no-one
Not going home with no-one
Not going home with no-one

Fill 2.

Chorus

Well come on, we can’t go on
Well come on, we can’t go on
Well come on, you can’t go home
The night is young
I’m blacking out
But it’s been fun
You can’t go home
The night is young
I’m blacking out
But it’s been fun
You can’t go home
The night is young
I’m blacking out
But it’s been

To play the most songs, including This Scene Is Dead by We Are Scientists by ukulele, the most crucial basic ukulele chords to learn are C chord, D chord, G chord, and Em chord.
These set you up to play a a lot of songs, and each of them is easy to learn.

If you are looking for Can’t Lose ukulele chords, you’ve visit to the best place.
You can play versatile instrument Can’t Lose using ukulele or guitar.
This song by We Are Scientists can also be played by that instruments.
=

Can’t Lose chords has rhythm and included in With Love and Squalor (2005) album.
You can also find other musical style, including jazz ukulele chords, country music ukulele chords, pop ukulele chords, world music ukulele chords, and rock ukulele chords here.

Can’t Lose by We Are Scientists Ukulele Chords


This is my first tab so just bear with me, but i?m 99% sure its 100% right!

X Fret-Hand Mute
/ Slide Up
Slide Down

Verse 1
?The party’s alright, I might wanna stop drinking
What were we talking about?
My body won’t tell my mind what I’ve been thinking
Before it’s outta my mouth?
Ooow

Bridge


e|-777777775555555544444444112211221----------------------------------------|
B|--------------------------------------------------------------------------|
G|--------------------------------------------------------------------------|
D|--------------------------------------------------------------------------|
A|--------------------------------------------------------------------------|
E|--------------------------------------------------------------------------|

Verse 2
?The minute I get upset, that’s it, it’s over
I’m already outta the room
Why can’t I just forget that?
I know what’s gonna hurt
There’s not much else I can do
Ooow?

Chorus

Dx8
?I’m breaking my own rules
Ex8
Becoming someone else
Dx8 Ex8
Well everybody says I oughtta get over myself
Dx8
I’m thinking I can’t move
Ex4 F#mx4
If there isn’t somewhere else
To go?

Bridge


e|-2---XX-2---XX-2---XX-2---XX-2---XX-2--?9---9---9---9---9-|
B|-2---XX-2---XX-2---XX-2---XX-2---XX-2---9---9---9---9---9-|
G|-2---XX-2---XX-2---XX-2---XX-2---XX-2---9---9---9---9---9-|
D|-3---XX-3---XX-3---XX-3---XX-3---XX-3--11--11--11--11--11-|
A|-3---XX-3---XX-3---XX-3---XX-3---XX-3--11--11--11--11--11-|
E|-2---XX-2---XX-2---XX-2---XX-2---XX-2---9---9---9---9---9-|

Play the XX by keeping your fingers in the F#m position but just touching the strings
your fret hand, don?t press them down

Verse3


e|-9999 10101010-7777-9999-5555-4444-2222-10101010---------------|
B|---------------------------------------------------------------|
G|---------------------------------------------------------------|
D|---------------------------------------------------------------|
A|---------------------------------------------------------------|
E|---------------------------------------------------------------|

?I’ve probably made mistakes that I’ve forgotten
It’s all ambiguous now?


e|-9999 10101010-7777-9999-5555-4444-2222-12121------------------|
B|---------------------------------------------------------------|
G|---------------------------------------------------------------|
D|---------------------------------------------------------------|
A|---------------------------------------------------------------|
E|---------------------------------------------------------------|

?I’d be willing to take the shape of what you wanted
I could just figure it out
Ooow?

Chorus

Dx8
?I’m breaking my own rules
Ex8
Becoming someone else
Dx8 Ex8
Well everybody says I oughtta get over myself
Dx8
I’m thinking I can’t move
Ex4 F#mx4
If there isn’t somewhere else
To go?

e|-7777777755555555444444441111111199999999101010101010101313131313131313-


B|------------------------------------------------------------------------|
G|------------------------------------------------------------------------|
D|------------------------------------------------------------------------|
A|------------------------------------------------------------------------|
E|------------------------------------------------------------------------|

Interlude


e|------------------------------------------------------------------------|
B|------------------------------------------------------------------------|
G|------------------------------------------------------------------------|X4
D|-77776666444422221111111/2------------------------------------------|
A|------------------------------55555555----------------------------------|
E|------------------------------------------------------------------------|

?Ooooohhhh? On the 4th time only play one 5

Chorus

Dx8
?I’m breaking my own rules
Ex8
Becoming someone else
Dx8 Ex8
Well everybody says I oughtta get over myself
Dx8
I’m thinking I can’t move
Ex8 F#mx8
If there isn’t somewhere else
To go?

Bridge


e|-2---XX-2---XX-2---XX-2---XX-2---XX-2--?9---9---9---9---9-|
B|-2---XX-2---XX-2---XX-2---XX-2---XX-2---9---9---9---9---9-|
G|-2---XX-2---XX-2---XX-2---XX-2---XX-2---9---9---9---9---9-|
D|-3---XX-3---XX-3---XX-3---XX-3---XX-3--11--11--11--11--11-|
A|-3---XX-3---XX-3---XX-3---XX-3---XX-3--11--11--11--11--11-|
E|-2---XX-2---XX-2---XX-2---XX-2---XX-2---9---9---9---9---9-|

Chorus
Dx8
?It’s changing my issues
Ex8
As far as I can tell
Dx8 Ex8
Well everybody says I oughtta get over myself
Dx8
I’m thinking I can’t move
Ex8 F#mx8
If there isn’t somewhere else
To go?

e|-7777777755555555444444441111111199999999101010101010101313131313131313-


B|------------------------------------------------------------------------|
G|------------------------------------------------------------------------|
D|------------------------------------------------------------------------|
A|------------------------------------------------------------------------|
E|------------------------------------------------------------------------|

It sounds great played along with the CD.

!!!Thanks!!!

To play the most songs, including Can’t Lose by We Are Scientists by ukulele, the most important basic ukulele chords to learn are C chord, D chord, G chord, and Em chord.
These set you up to play a ton of songs, and each of them is easy to learn.

If you are searching for Chick Lit ukulele chords, you have come to the best site.
You can play versatile instrument Chick Lit using ukulele or guitar.
This song by We Are Scientists can also be played by that instruments.
=

Chick Lit chords has rhythm and included in Brain Thrust Mastery (2008) album.
You can also find another musical style, including jazz ukulele chords, country music ukulele chords, pop ukulele chords, world music ukulele chords, and rock ukulele chords here.

Chick Lit by We Are Scientists Ukulele Chords

This is the acoustic version We Are Scientists play for this song. It’s fairly simple
few chords.
Note – The Dmaj7 is played with the ‘e’ open. Timing is fairly approximate but not
Listen to the track to get a better idea for the rhythm and when to mute the chord for the rhythm.
http://www.thesun.co.uk/sol/homepage/video/article300101.ece?vxSiteId6247211d-
66e0-4454-b73a-3f1610efa39a&vxChannelJukebox&vxClipId1347_SUN7817&vxBitrate300
F#m – 244222
E – 022100
Dmaj7 – X57670
A – 577655

Intro – F#m
I wouldn’t be caught dead with your kind
and all the hot-shot carrying on that you do.
It’s your only move.

I wanna see you all buried alive
and I’ll be up top carrying on over you,
only for you.

I asked you nicely once but I won’t do that again
I asked you nicely once but I won’t do that again
If after all we still have high hopes,
and all is forgiven, if all is forgiven.
I asked you nicely once but I won’t do that again


You know that we’ve got some axes to grind.
We’ve got some sharp-tongue carrying on to do,
it’s your only move.

I wanna see you all buried alive
and I’ll be up top carrying on over you,
only for you.

I asked you nicely once but I won’t do that again
I asked you nicely once but I won’t do that again
If after all we still have high hopes,
and all is forgiven, if all is forgiven.
I asked you nicely once but I won’t do that again

F#m – E – A – E – F#m (Play twice)

I asked you nicely once but I won’t do that again
I asked you nicely once but I won’t do that again
If after all we still have high hopes,
and all is forgiven, if all is forgiven.
I asked you nicely once but I won’t do that again
again

To play the this songs, including Chick Lit by We Are Scientists by ukulele, the most important basic ukulele chords to learn are C chord, D chord, G chord, and Em chord.
These set you up to play a a lot of songs, and each of them is easy to learn.

If you are searching for After Hours ukulele chords, you’ve come to the best place.
You can play versatile instrument After Hours using ukulele or guitar.
This song by We Are Scientists can also be played by that instruments.
=

After Hours chords has rhythm and included in Brain Thrust Mastery (2008) album.
You can also get other musical style, including jazz ukulele chords, country music ukulele chords, pop ukulele chords, world music ukulele chords, and rock ukulele chords here.

After Hours by We Are Scientists Ukulele Chords


guitar one:
does this almost all the way thru apart from the middle 8


e|-0-0-0--0-0--0-0-0-0-0-0-0-0-0-0-0------------------|
B|-0-0-10-0-12-0-0-0-9-0-0-7-0-0-0-0------------------|
G|----------------------------------------------------|
D|----------------------------------------------------|
A|----------------------------------------------------|
E|----------------------------------------------------|

guitar two

Intro and Verse


e|--------------------------------------------------------------------|
B|--------------------------------------------------------------------|
G|-9-9-9-9-9-9-9-9-9-9-9-9-9-9-9-9-9-9-9-9-9-9-9-9-9-9-9-9-9-9-9------|
D|-9-9-9-9-9-9-9-9-9-9-9-9-9-9-9-9-9-9-9-9-9-9-9-9-9-9-9-9-9-9-9------|
A|-7-7-7-7-7-7-7-7-7-7-7-0-0-0-0-x-x-x-x-x-x-x-x-x-x-x-x-x-x-x-x------|
E|-------------------------------7-7-7-7-7-7-7-7-9-9-9-9-9-9-9-9------|

chorus:


e|-----------------------------------------------------|
B|-----------------------------------------------------|
G|-9-9-9-9-9-9-9-9-9-9-9-9-9-9-9-9-9-9-9-9-9-9-9-9-9-9-|
D|-9-9-9-9-9-9-9-9-9-9-9-9-9-9-9-9-9-9-9-9-9-9-9-9-9-9-|
A|-x-x-x-x-x-x-x-x-x-x-x-x-x-x-x-x-7-7-7-7-7-0-0-0-0-0-|
E|-9-9-9-9-9-9-9-9-7-7-7-7-7-7-7-7---------------------|

say that youll stay


e|-----------------------------------------------------|
B|-----------------------------------------------------|
G|-9-9-9-9-9-9-9-9-9-9-9-9-9-9-9-9-9-9-9-9-9-9-9-------|
D|-9-9-9-9-9-9-9-9-9-9-9-9-9-9-9-9-9-9-9-9-9-9-9-------|
A|-0-0-0-0-x-x-x-x-x-x-x-x-0-0-0-0-7-7-7-7-7-7-7-------|
E|---------7-7-7-7-9-9-9-9-----------------------------|

middle 8:
We?re all right where we?re supposed to be,
We?re all right where we?re supposed to be,
We?re all right where we?re supposed to be,
(Time means nothing)
We?re all right where we?re supposed to be,
(Time means nothing)

these are bare chords )

then back to the verse

To play the this songs, including After Hours by We Are Scientists by ukulele, the most crucial basic ukulele chords to learn are C chord, D chord, G chord, and Em chord.
These set you up to play a a lot of songs, and each of them is easy to master.