If you are searching for Unspoken Definites ukulele chords, you’ve visit to the best site.
You can play versatile instrument Unspoken Definites using ukulele or guitar.
This song by Up Dharma Down can also be played by that instruments.
=

Unspoken Definites chords has rhythm and included in Other Songs album.
You can also find other musical style, including jazz ukulele chords, country music ukulele chords, pop ukulele chords, world music ukulele chords, and rock ukulele chords here.

Unspoken Definites by Up Dharma Down Ukulele Chords


UNSPOKEN DEFINITES by Up Dharma Down

INTRO:


e|------------------|
B|-4-4-xx-4-4-4-xxx-|
G|-4-4-xx-4-4-4-xxx-|
D|-2-2-xx-2-2-2-xxx-|
A|------------------|
E|------------------|
e|------------------ ------------------|
B|-4-4-xx-4-4-4-xxx- -2-2-xx-2-2-2-xxx-|
G|-4-4-xx-4-4-4-xxx- 2x -2-2-xx-2-2-2-xxx-| 2x
D|-2-2-xx-2-2-2-xxx- -0-0-xx-0-0-0-xxx-|
A|------------------ ------------------|
E|------------------ ------------------|

VERSE:
Taunting the waves and…


e|---------------------------------|
B|-----------------------4-4-4-4-5-|
G|-----------------------4-4-4-4-4-|
D|-----------------------2-2-2-2-2-|
A|---------------------------------|
E|---------------------------------|

Taunting the waves and…


e|---------------------------------|
B|-----------------------4-4-4-4-2-|
G|-----------------------4-4-4-4-2-| 2x
D|-----------------------2-2-2-2-0-|
A|---------------------------------|
E|---------------------------------|
e|----------------------|
B|-4-4-4-4-5-xx-4-4-5-x-|
G|-4-4-4-4-4-xx-4-4-4-x-| 2x
D|-2-2-2-2-2-xx-2-2-2-x-|
A|----------------------|
E|----------------------|
e|----------------------|
B|-4-4-4-4-2-xx-4-4-2-x-|
G|-4-4-4-4-2-xx-4-4-2-x-| 2x
D|-2-2-2-2-0-xx-2-2-0-x-|
A|----------------------|
E|----------------------|

CHORUS:
This is the color of my silver lining made of gold
Here comes the storybook hero that I once was told of
And I roll away descend the pull of gravity
Insert denial here the things even the blind can see

I’ve got everything to lose
So why not lose it anyway
All I needed from you was to sing

What I had to say

(intro…)
Yeah yeah….

NITRAM
05-05-10
9:37AM

To play the this songs, including Unspoken Definites by Up Dharma Down by ukulele, the most important basic ukulele chords to learn are C chord, D chord, G chord, and Em chord.
These set you up to play a a lot of songs, and each of them is easy to master.

If you are searching for Sana ukulele chords, you’ve visit to the best site.
You can play versatile instrument Sana using ukulele or guitar.
This song by Up Dharma Down can also be played by that instruments.
=

Sana chords has rhythm and included in album.
You can also find other musical style, including jazz ukulele chords, country music ukulele chords, pop ukulele chords, world music ukulele chords, and rock ukulele chords here.

Sana by Up Dharma Down Ukulele Chords


Title: Sana
Artist: Up Dharma Down
Album: Bipolar

CHORDS USED:
Dsus4
F
Cadd9 [032033]
FM7 [XX3210]
Dmadd9 [XX3230]
Em7 [022033]
D7sus4 [XX0213]
F
Am [X02210]
G5 [3X0033]
Am7 [X02010]
Dadd4/G[3X0032]
C#m
B
D7 [XX0212]
G
Bm
A [X02220]
Fadd9 [X03213]
Am7 [X02013]

INTRO:


e|-3-1--3-1-|
B|-3-1--3-1-|
G|-2-2--2-2-| 2x
D|----------|
A|----------|
E|----------|



VERSE 1:


e|-0--------0----------0------0-|
B|-1--------3----------1------3-|
G|-2--------2----------2------2-|
D|-3--------3----------3------3-|
A|------------------------------|
E|------------------------------|

Nilibot na ang buong mundo


e|-3------3---------3----0--3---|
B|-3------3---------3----1--1---|
G|-0------0---------0----2--2---|
D|-2------2---------2----3--0---|
A|-2------2---------2-----------|
E|-0------0---------0-----------|

Di pa rin ako nakukuntento


e|-0------0---------0-------0---|
B|-1------3---------1-------3---|
G|-2------2---------2-------2---|
D|-3------3---------3-------3---|
A|------------------------------|
E|------------------------------|

Makakahanap ng ipapalit Nang


e|-3--------3----------3-------0----------|
B|-3--------3----------3-------1----------|
G|-0--------0----------0-------2----------|
D|-2--------2----------2-------3----------|
A|-2--------2----------2------------------|
E|-0--------0----------0------------------|

walang babala Lumipas ay nagbabalik pala

PRE-CHORUS:
Nalilito na ako hindi na dapat gan’to
Nakaraan ay natapos at napagdaanan na
Bakit na sisindak pa sa t’wing naaalala
Matatauhan na wala ka na pala

CHORUS:
Ako sila’y nandito na
Ikaw na lang ang kulang
Anong lunod o lalim ba’t ‘di na lang lumutang
Anong pait ang matamis at aking susubukan
Anong silbi ng narito
Di mo na kailangan

VERSE 2:
Hindi nga nagtagal ang pagpapanggap na ‘to
Kaliwa at kanan harap at likod ano mang anggulo
Titigan ay bumibigay ako

PRE-CHORUS:
Damdamin ay kay bigat
Naisip na ang lahat
Wala na ba talaga akong magagawa pa

CHORUS:
Ako sila’y nandito na
Ikaw na lang ang kulang
Anong lunod o lalim ba’t ‘di na lang lumutang
Anong tamis ang mapait at aking iiwasan
Walang silbi ang narito
‘Di mo na kailangan

[Dadd4/G] Wala na bang makakapantay
at di na ba dapat pang maghintay
[Dadd4/G] Ako lang ba ang nagkasala?
Kumakapit sa natitirang sana
Kung babalik ka pa
hanggang kailan kaya?
Ako dito mag aabang na magdutong na ang patlang
Ang kulang ay mapupunan wala nang makahahadlang
Wala na yatang hihigit sa pangungulila ko
I[Dadd4/G]ba na bang nagbibigay ng mga kailangan mo?

Fadd9 Am7 Em7
Fadd9 Am7 Em7

Fadd9 Am7 Em7
Oh sana Kay higpit ng kapit sa unan kagabi ko
Fadd9 Am7 Em7 FM7
Oh sana Inaasam muling makatabi at mahalik sana

To play the most songs, including Sana by Up Dharma Down by ukulele, the most important basic ukulele chords to learn are C chord, D chord, G chord, and Em chord.
These set you up to play a ton of songs, and each of them is easy to learn.

If you are looking for Indak ukulele chords, you already visit to the right site.
You can play versatile instrument Indak using ukulele or guitar.
This song by Up Dharma Down can also be played by that instruments.
=

Indak chords has rhythm and included in Capacities (2012) album.
You can also find other musical style, including jazz ukulele chords, country music ukulele chords, pop ukulele chords, world music ukulele chords, and rock ukulele chords here.

Indak by Up Dharma Down Ukulele Chords


Tabbed entirely by ear.
Please place in the comments below if you have suggestions/corrections.
Capo on 2nd/3rd fret. I tuned my guitar lower than standard..
half down i think? Im not sure.
For the strumming, palm muting in the verses (you can play around on this part) and
(vv^^v^) for the rest of the song.
Or you can just listen closely to get the strumming pattern. Enjoy! 😀

Intro: Bb — F — (2x)

Tatakbo at gagalaw
Mag-iisip kung dapat bang bumitaw
Kulang na lang, atakihin
F (pause)
Ang pag-hinga’y nabibitin

Ang dahilang alam mo na
Kahit ano pang sabihin nila
Tayong dalawa lamang ang makakaalam
Ngunit ako ngayo’y naguguluhan

Makikinig ba ako
Sa aking isip na dati pa namang magulo?
O iindak na lamang sa tibok ng puso mo
At aasahan ko na lamang na
Bb (hold)
Hindi mo aapakan ang aking mga paa
C# (hold)
Pipikit na lamang at mag-sasayaw
Habang nanonood siya..[–].[–]

Paalis at pabalik
May baong yakap at suklian ng halik
Mag-papaalam at mag-sisisi
Habang papiglas ka ako sayo ay tatabi

Tayong dalawa lamang ang nakaka-alam
Ngunit hindi na matanto kung sino nga ba ang pag-bibigyan ko
Makikinig nga ba sa isipan na alam ang wasto
Ngunit pipigilan ang pag-ibig nya na totoo

Iindak na lamang ba sa tibok ng puso mo
At aasahan ko hindi nya lamang aapakan ang aking mga paa
Pipikit na lamang at mag-sasaya
Habang nalulungkot ka
Pipikit na lamang at mag-sasaya
Habang nalulungkot ka

Ako’y Litong-lito, tulungan niyo ako
Di ko na alam kung sino pang aking pagbibigyan o[Bb–]
Ayoko na ng ganito
(let it ring…)
Ako ay litong-lito ohwooh

To play the most songs, including Indak by Up Dharma Down by ukulele, the most crucial basic ukulele chords to learn are C chord, D chord, G chord, and Em chord.
These set you up to play a many of songs, and each of them is easy to master.

If you are searching for Unspoken Definites ukulele chords, you’ve come to the best site.
You can play versatile instrument Unspoken Definites using ukulele or guitar.
This song by Up Dharma Down can also be played by that instruments.
=

Unspoken Definites chords has rhythm and included in Other Songs album.
You can also find other musical style, including jazz ukulele chords, country music ukulele chords, pop ukulele chords, world music ukulele chords, and rock ukulele chords here.

Unspoken Definites by Up Dharma Down Ukulele Chords

UNSPOKEN DEFINITES by Up Dharma Down

INTRO:


e|------------------|
B|-4-4-xx-4-4-4-xxx-|
G|-4-4-xx-4-4-4-xxx-|
D|-2-2-xx-2-2-2-xxx-|
A|------------------|
E|------------------|
e|------------------ ------------------|
B|-4-4-xx-4-4-4-xxx- -2-2-xx-2-2-2-xxx-|
G|-4-4-xx-4-4-4-xxx- 2x -2-2-xx-2-2-2-xxx-| 2x
D|-2-2-xx-2-2-2-xxx- -0-0-xx-0-0-0-xxx-|
A|------------------ ------------------|
E|------------------ ------------------|

VERSE:
Taunting the waves and…


e|---------------------------------|
B|-----------------------4-4-4-4-5-|
G|-----------------------4-4-4-4-4-|
D|-----------------------2-2-2-2-2-|
A|---------------------------------|
E|---------------------------------|

Taunting the waves and…


e|---------------------------------|
B|-----------------------4-4-4-4-2-|
G|-----------------------4-4-4-4-2-| 2x
D|-----------------------2-2-2-2-0-|
A|---------------------------------|
E|---------------------------------|
e|----------------------|
B|-4-4-4-4-5-xx-4-4-5-x-|
G|-4-4-4-4-4-xx-4-4-4-x-| 2x
D|-2-2-2-2-2-xx-2-2-2-x-|
A|----------------------|
E|----------------------|
e|----------------------|
B|-4-4-4-4-2-xx-4-4-2-x-|
G|-4-4-4-4-2-xx-4-4-2-x-| 2x
D|-2-2-2-2-0-xx-2-2-0-x-|
A|----------------------|
E|----------------------|

CHORUS:
This is the color of my silver lining made of gold
Here comes the storybook hero that I once was told of
And I roll away descend the pull of gravity
Insert denial here the things even the blind can see

I’ve got everything to lose
So why not lose it anyway
All I needed from you was to sing

What I had to say

(intro…)
Yeah yeah….

NITRAM
05-05-10
9:37AM

To play the this songs, including Unspoken Definites by Up Dharma Down by ukulele, the most important basic ukulele chords to learn are C chord, D chord, G chord, and Em chord.
These set you up to play a ton of songs, and each of them is easy to master.

If you are searching for Thinker ukulele chords, you have come to the right site.
You can play versatile instrument Thinker using ukulele or guitar.
This song by Up Dharma Down can also be played by that instruments.
=

Thinker chords has rhythm and included in Capacities (2012) album.
You can also get other musical style, including jazz ukulele chords, country music ukulele chords, pop ukulele chords, world music ukulele chords, and rock ukulele chords here.

Thinker by Up Dharma Down Ukulele Chords


pwede syang pang guitar and for bass. 🙂
kung may mali, may corrections kahit konti lang,
or kung may suggestion kayo don’t hesitate to
e-mail me at krupskaia.requilman@gmail.com ok?
PLEASE DO NOT FORGET TO RATE.THANK YOU. 😀

Thought it out
I’m convinced
There is no difference
In our differences
You get what you want
I’m unnerved
When I get what I need,
Its not what you say you deserve
When I try to say goodbye
You stop me on my feet
And push me up to lead the way
And there you go leaving while I stay down believing
Free your mind, you say (3x)
Does this free your mind?
Free your mind, you say (3x)
Did I free your mind?
The sweetest beginnings
Now on the edge of pretension
Though I believe you when you say
You’ve got the clearest intentions
No I’m not looking for love
It’s not like I’m gonna find it
But you let me slip through your fingers
And expect me just to stay behind it all
Is it love at your mercy?
And prayer is all that I need
I’ve given you everything
For you to feed on me dry
No need to try too hard every time
Free your mind, you say (3x)
Does this free your mind?
Free your mind, you say (3x)
Are you liberated?

INSTRUMENTAL: E F#m(3x)C#m

Ooooh…
You can do anything you want now
Enjoy yourself, but
Enjoy yourself, but
You’re on your own now
You’re on your own now
You’re on your own now

DO NOT FORGET TO RATE. THANK YOU. 😀

To play the this songs, including Thinker by Up Dharma Down by ukulele, the most important basic ukulele chords to learn are C chord, D chord, G chord, and Em chord.
These set you up to play a ton of songs, and each of them is easy to learn.

If you are searching for Luna ukulele chords, you’ve visit to the best place.
You can play versatile instrument Luna using ukulele or guitar.
This song by Up Dharma Down can also be played by that instruments.
=

Luna chords has rhythm and included in Capacities (2012) album.
You can also get other musical genres, including jazz ukulele chords, country music ukulele chords, pop ukulele chords, world music ukulele chords, and rock ukulele chords here.

Luna by Up Dharma Down Ukulele Chords


-----------------------------------------------------------------------------

Luna – Up Dharma Down


-----------------------------------------------------------------------------

Tabbed by: scratch_n_sniff
E-mail: doctordro@gmail.com

standard tuning

Intro: Repeat 2x


e|------------------------------------------------------------------------------------|
B|-----------------6-----------------5-----------------6-------------------5-------8--|
G|----------5-----------------5-----------------5--------------------5----------------|
D|----8-----------------7----------------8-------------------7------------------------|
A|------------------------------------------------------------------------------------|
E|------------------------------------------------------------------------------------|

Ano na naman itong gumugulo

sa buhay ko?

Bawat nakaw-tingin

Sinasalo lang ng hangin

Chorus:


[Minamasdan]
Ang saya ng puso mo

Sa piling ng iba

Inaasam

Ang paglaya ng buwan

Na laging mag-isa

Oooooh

(Repeat Intro)

Ano na naman

itong sinusuyo ng buhay ko

pinangtatawag ng pansin

mawawala lang sa hangin

Chorus 2:

Inaasam

ang saya ng puso ko

sa piling ng iba


[Minamasdan]
ang paglaya ng buwan

na laging mag-isa

Instrumental:

(Variation of F Am G , you can do this to emulate Carlos Tanada?s lick. Accent it on
the 8th fret of the B string. Repeat until fade)


e|--------------5--------------------|
B|---8----------8-------8------------|
G|---5----------5-------7------------|
D|---x----------5-------x------------|
A|---8----------7------10------------|
E|--------------5--------------------|

Oh oh ooooh oh?
Oh oh ooooh oh?

To play the this songs, including Luna by Up Dharma Down by ukulele, the most important basic ukulele chords to learn are C chord, D chord, G chord, and Em chord.
These set you up to play a ton of songs, and each of them is easy to learn.

If you are searching for Feelings ukulele chords, you already visit to the best place.
You can play versatile instrument Feelings using ukulele or guitar.
This song by Up Dharma Down can also be played by that instruments.
=

Feelings chords has rhythm and included in Capacities (2012) album.
You can also get other musical style, including jazz ukulele chords, country music ukulele chords, pop ukulele chords, world music ukulele chords, and rock ukulele chords here.

Feelings by Up Dharma Down Ukulele Chords

From Capacities Album
Tabbed by Jake Zaragoza

This is not an exact tab of the song
but this is pretty much how i play it
just sharing for those who
want to play this great great song as well,
i’ll try to make a guitar cover on how i play/strum the parts
hope you appreciate this 🙂


e|-----------------------|
b|----0----0-------------|
g|----7----6-----------6-|
d|----7----7-----------7-|
a|---------------------7-|
e|-----------------------| >>>>> D DM7 A

Brea- king through the night
in this cold fahrenheit

Bland and bittersweet
Wondering what went wrong


e|-------------------------|
b|-------------------------|
g|----4------------4-------|
d|----5------------5-------|
a|----5------------5-------|
e|----3------------3-------| >>>>> G

shadows have left
There goes all hope


e|-------------------------|
b|-------------------------|
g|----0-----------0--------|
d|----2-----------0--------|
a|----2-----------2--------|
e|----0-----------0--------| >>>>> Em Em7

crying got old
There goes all hope


e|-----0--------0------------|
b|-----0--------0------------|
g|-----2--------7------------|
d|-----4--------9------------|
a|-----4--------9------------|
e|-----0--------0------------| >>>>> F#m Bm

But the feeling
It tries to escape
Bleeds through the light
Even when I close my eyes
Its not seething
The weight on this shoulder
I can’t wait to chase the fiction home
And carry on
( Tab from: http://www.guitartabs.cc/tabs/u/up_dharma_down/feelings_tab.html )
Same tab as previous stanzas
From this point strum all strings, and just feel the vibe of the song 😉

Favors in reverse
Songs are unrehearsed
When I get through this
I hope I get through you

Stains on my mind
The cloud on that hour
The minute you closed the door
My eyes washed the floor

Baby, baby it’s hard to say
But there seems to be no other way
You left and you were right
So I have to let us down this time
’Cause I can’t
’Cause I can’t feel it
No other way but down
No other way but down
You said so yourself

It’s just
It’s just a feeling
It’s just a feeling
What are you crying for
What are you crying for
When it’s just a feeling
God knows you can get through this
When it’s just a feeling
They are just feelings
These are just feelings

[G-G-F#m-Bm]
I wanna know
Do you feel anything
As you go on your way
Driving home
As I sleep alone tonight
I wanna know
Do you feel anything
For me
Is there anything you like to say tonight?
Before I go
Before I go…f[G-G-F#m-Bm]orever…

To play the this songs, including Feelings by Up Dharma Down by ukulele, the most important basic ukulele chords to learn are C chord, D chord, G chord, and Em chord.
These set you up to play a a lot of songs, and each of them is easy to master.