If you are looking for Darkside of the Sun ukulele chords, you have visit to the best place.
You can play versatile instrument Darkside of the Sun using ukulele or guitar.
This song by Tokio Hotel can also be played by that instruments.
=

Darkside of the Sun chords has rhythm and included in Other Songs album.
You can also get other musical genres, including jazz ukulele chords, country music ukulele chords, pop ukulele chords, world music ukulele chords, and rock ukulele chords here.

Darkside of the Sun by Tokio Hotel Ukulele Chords


Tokio Hotel – Dark side of the sun

tuning: Eb

G A Bm A x2

Hello
Hello
Hello
On the tv
In your place
on the radio oh
Its a riot
Its a riot
They say no, oh
You are frantic
Don’t you panic
Let it go oh
We are,we are, we are
In the cities
On the streets
Around the globe-oh
They turn anything you love into a bow-oh
From the credits
To the great part
Of the show oh
We are, we are, we are
Radio Hysteria

Refrain
Hello
The end is near
Hello
Were still standing here
The future’s just begun
on the dark side of the sun
on the dark side of the sun
( Tab from: http://www.guitartabs.cc/tabs/t/tokio_hotel/dark_side_of_the_sun_crd.html )
Hello
Hello

All the weapons
in your hand
under controle-oh
But they wait
instead of chasing
Now its o-old
Time is running
but your future’s
Long ago oh
We are, we are, we are
Radio Hysteria

Refrain

Hello
The end is near
Hello
We’re still standing here
The future’s just begun
on the dark side of the sun
on the dark side of the sun
on the dark side of the sun
on the dark side of the sun

Will you end the pain?
When I’m by your side
Will follow me into the night?
They’re not gonna get us
We’ll be allright.
And one day The dark side will shine

For us
For us

Refrain

Hello
The end is near
Hello
We’re still standing here
The future’s just begun
on the dark side of the sun
on the dark side of the sun
on the dark side of the sun
on the dark side of the sun

To play the most songs, including Darkside of the Sun by Tokio Hotel by ukulele, the most important basic ukulele chords to learn are C chord, D chord, G chord, and Em chord.
These set you up to play a ton of songs, and each of them is easy to learn.

If you are looking for Hey You ukulele chords, you have come to the right place.
You can play versatile instrument Hey You using ukulele or guitar.
This song by Tokio Hotel can also be played by that instruments.
=

Hey You chords has rhythm and included in Other Songs album.
You can also find another musical genres, including jazz ukulele chords, country music ukulele chords, pop ukulele chords, world music ukulele chords, and rock ukulele chords here.

Hey You by Tokio Hotel Ukulele Chords


—————————————————————————–

SONG NAME – Band Name

—————————————————————————–

Tabbed by:

Email:

Tuning:

Just so you know some parts of this song don’t have chords

(No Chords)
Come on, you can look at me

I don’t need to fit in

Stand up if you give a damn

It’s the livin’ season

You and what your looking for, have you got a reason

You can if you wanna see, a touch amount of human

The same blood

The same cells

The same god

The same hell

The same life

The same love

Somebody, anybody, everybody stand up

Hey, you
we can turn it up
Hey, you
we can turn it up

(No Chords)
You know, noones listening

They don’t wanna hear it

Saying, what you wanna say

people start to fear it

The same fist

The same shout

The same pain

The same doubt

The same joy

The same love

Somebody, anybody, everybody stand up

Hey, you
we can turn it up
Hey, you
we can turn it up

Silence has been killing you
Screaming deep inside of you
Just turn it up
Just turn it up

( Tab from: http://www.guitartabs.cc/tabs/t/tokio_hotel/hey_you_crd.html )
All that you’ve got
Just let it out
Ready or not
Just turn it up, louder
Don’t let it stop, louder
Just turn it up, louder
Whats making you hot, louder
Just turn it up

(No Chords)
Come on, you can look at me

I don’t need to fit in

You can if you wanna see, just a touch of only human

The same blood

The same cells

The same god

The same hell

The same life

The same love

Sombody, anybody, everybody stand up

Hey, you
we can turn it up
Hey, you
we can turn it up

Silence has been killing you

Screaming deep inside of you

Just turn it up

Just turn it up

Silence has been killing you
Screaming deep inside of you
Just turn it up
Just turn it up

All that you’ve got
Just let it out
Ready or not
Just turn it up

To play the most songs, including Hey You by Tokio Hotel by ukulele, the most crucial basic ukulele chords to learn are C chord, D chord, G chord, and Em chord.
These set you up to play a ton of songs, and each of them is easy to master.

If you are searching for Reden ukulele chords, you have visit to the best site.
You can play versatile instrument Reden using ukulele or guitar.
This song by Tokio Hotel can also be played by that instruments.
=

Reden chords has rhythm and included in Zimmer 483 (2007) album.
You can also get another musical style, including jazz ukulele chords, country music ukulele chords, pop ukulele chords, world music ukulele chords, and rock ukulele chords here.

Reden by Tokio Hotel Ukulele Chords


Creo que por ahi le falta ajustar un poco
I think that need some arrangements

Mi Version

Calvi the best 😛

Artist: Tokio Hotel
Album: Zimmer 483
Year: 2007
Title: Reden

intro: A2 Em C G X3 creo jajaja

Hallo, Du stehst in meinder Tr.
Es ist sonst niemand hier, ausser Dir und mir.
OK -_Komm doch erstmal rein, der Rest geht von allein.
In Zimmer 483.

Hier drinnen, ist niemals richtig Tag.
Das Licht kommt aus der Minibar.
Und morgens wirds hier auch nicht hell,
Wilkommen im Hotel.

ESTRIBILLO
C Em Am G(igual en los otros)
Wir wollten nur reden,
Und jetzt liegst du hier.
Und ich lieg daneben, Reden, Reden.

Komm her, wir werden nicht gestrt.
Das hab ich schon geklrt, Don’t Disturb.
Egal, wo wir morgen sind.
Die Welt ist jetzt hier drinnen, leg Dich wieder hin.

Ich hr Dir zu, seh Dein Gesicht.
Deine Lippen, ffnen sich.
Red langsam, bitte nicht zu schnell.
Wilkommen im Hotel.

ESTRIBILLO
Wir wollten nur reden,
Und jetzt liegst du hier.
Und ich lieg daneben, Reden, Reden.

Vor der Tr Alarm, die ganze Welt ruft an.
D Am D Am……
Alle zerren an mir, Ich will mit keinder ausser Dir.

Reden,
A2 Em G……
Reden.

Wir wollten nur reden,
Und jetzt liegst du hier.
Und ich lieg daneben, Reden, Reden.

Wir wollten nur reden,
Und jetzt liegst du hier.
C Em Am G C Em Am G C Em Am G C Em Am G C Em Am G ….. C
Und ich lieg daneben, Reden, Reden. Reden, Reden,Reden, Reden…

To play the most songs, including Reden by Tokio Hotel by ukulele, the most crucial basic ukulele chords to learn are C chord, D chord, G chord, and Em chord.
These set you up to play a a lot of songs, and each of them is easy to master.

If you are looking for Reden ukulele chords, you already visit to the best place.
You can play versatile instrument Reden using ukulele or guitar.
This song by Tokio Hotel can also be played by that instruments.
=

Reden chords has rhythm and included in Zimmer 483 (2007) album.
You can also get other musical genres, including jazz ukulele chords, country music ukulele chords, pop ukulele chords, world music ukulele chords, and rock ukulele chords here.

Reden by Tokio Hotel Ukulele Chords


Creo que por ahi le falta ajustar un poco
I think that need some arrangements

Mi Version

Calvi the best 😛

Artist: Tokio Hotel
Album: Zimmer 483
Year: 2007
Title: Reden

intro: A2 Em C G X3 creo jajaja

Hallo, Du stehst in meinder Tr.
Es ist sonst niemand hier, ausser Dir und mir.
OK -_Komm doch erstmal rein, der Rest geht von allein.
In Zimmer 483.

Hier drinnen, ist niemals richtig Tag.
Das Licht kommt aus der Minibar.
Und morgens wirds hier auch nicht hell,
Wilkommen im Hotel.

ESTRIBILLO
C Em Am G(igual en los otros)
Wir wollten nur reden,
Und jetzt liegst du hier.
Und ich lieg daneben, Reden, Reden.

Komm her, wir werden nicht gestrt.
Das hab ich schon geklrt, Don’t Disturb.
Egal, wo wir morgen sind.
Die Welt ist jetzt hier drinnen, leg Dich wieder hin.

Ich hr Dir zu, seh Dein Gesicht.
Deine Lippen, ffnen sich.
Red langsam, bitte nicht zu schnell.
Wilkommen im Hotel.

ESTRIBILLO
Wir wollten nur reden,
Und jetzt liegst du hier.
Und ich lieg daneben, Reden, Reden.

Vor der Tr Alarm, die ganze Welt ruft an.
D Am D Am……
Alle zerren an mir, Ich will mit keinder ausser Dir.

Reden,
A2 Em G……
Reden.

Wir wollten nur reden,
Und jetzt liegst du hier.
Und ich lieg daneben, Reden, Reden.

Wir wollten nur reden,
Und jetzt liegst du hier.
C Em Am G C Em Am G C Em Am G C Em Am G C Em Am G ….. C
Und ich lieg daneben, Reden, Reden. Reden, Reden,Reden, Reden…

To play the most songs, including Reden by Tokio Hotel by ukulele, the most important basic ukulele chords to learn are C chord, D chord, G chord, and Em chord.
These set you up to play a many of songs, and each of them is easy to master.

If you are looking for Noise ukulele chords, you’ve visit to the best place.
You can play versatile instrument Noise using ukulele or guitar.
This song by Tokio Hotel can also be played by that instruments.
=

Noise chords has rhythm and included in Other Songs album.
You can also get another musical genres, including jazz ukulele chords, country music ukulele chords, pop ukulele chords, world music ukulele chords, and rock ukulele chords here.

Noise by Tokio Hotel Ukulele Chords


ALL tabbed by ear! 100% correct! Please comment / rate/ email me! 😉

Tabbed by: Wei Jian
Email: weijianang@hotmail.com

Tuning: Standard (E A D G B E)

Note: Play all in barre chords EXCEPT “Em” chord.

Intro:

[/] [/] [/]
There are days when you feel so small

And you know you could be so tall

You think you got no chance

Look at the earth, look what we do

Here and now

We need you

Silence can destroy

Get up and raise your voice

Chorus:

Make some noise

Here on earth, noise

To the world, noise

All the things you believe in, noise

Let them hear you, noise

Let them fear you, noise

Make them know

That you can make noise, noise


-------------------------------------------------------

You are free, you are innocent

You believe in a happy end

Days turn into years

Now your here with your broken mind

While your dreams are sleeping quiet

Silence can destroy

Get up and raise your voice

Chorus:

Make some noise

Here on earth, noise

To the world, noise

All the things you believe in, noise

Let them hear you, noise

Let them fear you, noise

Make them know

That you can make noise, noise


--------------------------------------------------------

Can you feel it?

Can you feel it?

Can you feel it?

Can you feel it?

Come on

Come on

(silence – nothing played, only vocals)

As everything you’ve ever been
Why don’t we share? Come take me there


---------------------------------------------------------

Whoa, whoa, noise

Whoa, whoa, noise

Whoa, whoa, noise

Whoa, whoa, you can make them feel that they care, noise

Whoa, whoa, noise

Whoa, whoa, noise

Whoa, whoa, you can make them feel that they care, noise

Noise

(nothing played – ended)
Woah woah noise.

That’s all! And remember to rate / comment / email me if anythings wrong but i doubt there’s any!

Bye!

Wei Jian

To play the this songs, including Noise by Tokio Hotel by ukulele, the most crucial basic ukulele chords to learn are C chord, D chord, G chord, and Em chord.
These set you up to play a many of songs, and each of them is easy to learn.

If you are searching for Automatic ukulele chords, you have come to the right place.
You can play versatile instrument Automatic using ukulele or guitar.
This song by Tokio Hotel can also be played by that instruments.
=

Automatic chords has rhythm and included in Other Songs album.
You can also get another musical genres, including jazz ukulele chords, country music ukulele chords, pop ukulele chords, world music ukulele chords, and rock ukulele chords here.

Automatic by Tokio Hotel Ukulele Chords


-------------------------------------------------------------------------------

Automatic (Acoustic Rolling Stone?s Cover – Tokio Hotel


-------------------------------------------------------------------------------

Tabbed by: Tatiana ?Me- (tokiohotelluvr)-(purplebeagle04)
Email: tokiohotelluvr@yahoo.com

Tuning: Standard w/ Capo on First
Chords Used:


e|----3------------|
B|----3------------|
G|-----------------|
D|--1--------------|
A|----2------------|
E|----x------------|

(For this chord just keep your fingers
in the Cadd9 position but remove you middle finger
and try muting that string, im also not sure what
this chord is so lets just call it,
[Ab)]


e|---3-------------|
B|---3-------------|
G|-----------------|
D|-1---------------|
A|---x-------------|
E|---x-------------|


e|---2-------------|
B|----3------------|
G|---2-------------|
D|-----------------|
A|---x-------------|
E|---x-------------|


e|-----------------|
B|---1-------------|
G|---0-------------|
D|---2-------------|
A|---3-------------|
E|---x-------------|


e|---x-------------|
B|---x-------------|
G|---8-------------|
D|---9-------------|
A|---9-------------|
E|---7-------------|

Verse 1:
(Strum Everything Just Once until you get to ?But they Never? then strum up and down)
You’re automatic,
And your heart’s like an engine
I die with every beat
You’re automatic,
And your voice is electric
Why do I still believe?
It’s automatic
Everywhere in your letter
A lie that makes me bleed
It’s automatic
When you say things get better
But they never…

Strumming for chorus is pretty much Down, Down, Down,Up, Down,Up Down,Up (Please check
my video http://www.youtube.com/watch?vnYPCXV9I0Dk or the original Tokio Hotel ?
Acoustic Cover for the Rolling Stones and watch Tom play)

Chorus-
There’s no real love in you
There’s no real love in you
There’s no real love in you
Why do I keep loving you

It’s automatic,
Counting cars on a crossroad
They come and go like you
It’s automatic,
Wtching faces I don’t know
Erase the face of you

It’s automatic
Systematic
So traumatic
You’re automatic

There’s no real love in you
There’s no real love in you
There’s no real love in you
Why do I keep loving you

Automatic
Automatic
Automatic
Automatic

Each step, you make
Each breath you take
Your heart. Your soul.
Remote-controlled
This life is so sick
You’re automatic to me

Strum up and down a few times, you would most likely get the strumming if you listen to
play it?


e|---------------|
B|---------------|
G|--0------------|
D|--4------------|
A|--2------------|
E|--0------------|

Cadd9,
Ab,

Chorus-
There’s no real love in you
There’s no real love in you
There’s no real love in you
Why do I keep loving you

Automatic
(There’s no real)
Love in you
Why do I
Keep loving you?
Automatic…

| x Mute note

To play the this songs, including Automatic by Tokio Hotel by ukulele, the most important basic ukulele chords to learn are C chord, D chord, G chord, and Em chord.
These set you up to play a many of songs, and each of them is easy to master.

If you are looking for Love and Death ukulele chords, you’ve come to the best place.
You can play versatile instrument Love and Death using ukulele or guitar.
This song by Tokio Hotel can also be played by that instruments.
=

Love and Death chords has rhythm and included in Other Songs album.
You can also find another musical genres, including jazz ukulele chords, country music ukulele chords, pop ukulele chords, world music ukulele chords, and rock ukulele chords here.

Love and Death by Tokio Hotel Ukulele Chords

Here Is Tokio Hotels Love and Death which will be on Humanoid
I Like LOVE it!

Standard Tuning : EADGBe
No Capo Needed – But You Can Add One If You Want To, and to adjust your voice if you
it! However No Capo Is Required if you are going to play along with the song!

I Hope It’s Okay, Tabbed By CharleyTokio Danke x

Tokio Hotel; Love & Death

I can give you
You can give me
Something, everything
You are with me
I am with you
Always, Join me In

Love and death, Love and death,
Dont you mess dont you mess
With my hear—t

Love and death, Love and death,
Dont you mess dont you mess
With my hear—t

With my Hear- t, With my Hear- t,

Em ,
Fragile Pieces
Dont regret the sorrows
That weve seen
Take it with us
Step into tomorrow
Join me in
( Tab from: http://www.guitartabs.cc/tabs/t/tokio_hotel/love_and_death_crd_ver_2.html )
Love and death, Love and death,
Dont you mess dont you mess
With my hear—t

Love and death, Love and death,
Dont you mess dont you mess
With my hear—t

With my Hear- t, With my Hear- t,

: Em , D ,
All the pain that weve been through
Am , G
Im dying to save you
Em , D ,
Feel the blood in my vains flow
Am , G
Ive been dying to save you
Ive been watching you swim
Ill just seeing you drown
As a tragedy of comedy
With my hear – t
With my hear – t

Love and death, Love and death,
Dont you mess dont you mess
With my hear—t

Love and death, Love and death,
Dont you mess dont you mess
With my hear—t

Love, Love, Love, LOVE

To play the most songs, including Love and Death by Tokio Hotel by ukulele, the most crucial basic ukulele chords to learn are C chord, D chord, G chord, and Em chord.
These set you up to play a ton of songs, and each of them is easy to master.

If you are looking for Rescue Me ukulele chords, you already visit to the best place.
You can play versatile instrument Rescue Me using ukulele or guitar.
This song by Tokio Hotel can also be played by that instruments.
=

Rescue Me chords has rhythm and included in Scream (2007) album.
You can also find another musical genres, including jazz ukulele chords, country music ukulele chords, pop ukulele chords, world music ukulele chords, and rock ukulele chords here.

Rescue Me by Tokio Hotel Ukulele Chords

– Intro; Verso1; Ritornello 1 SOLO CHITARRA –

PRE VERSE:

[Rescue meee.. Rescue mee] [1.00]


|------------|
|------------|
|----2-------|
|-0-----3--2-| x2

VERSO2:

[We lied when we were dreaming..] [1.09]


|------------------------| |------------|
|------------------------| |------------|
|----2--------2--3--5--0-| |----2-------|
|-0-----3--2-------------| x2 |-0-----3--2-| x2

PRE RITORNELLO2: RITORNELLO2:

[What I fear…] [Come on rescue me..] [You and me..]


|------|------| |------------|------------|------------|------------------|
|------|------| |------------|------------|------------|------------------|
|-0--3-|-0--0-| |-3--5-----2-|-3--5--0--0-|-3--5-------|-3--3--5--5-------|
|------|------| |-------0----|------------|-------0--0-|-------------0--0-|

INTERLUDE:

[The walls are coming closer..] [2.17]


|------------| |------------|
|------------| |------------|
|-3--5-------| |-0--3--0--0-|
|-------0--0-|x2 |------------|

PRE RITORNELLO3:

[Come on rescue me..] [2.40]

– SOLO CHITARRA –

RITORNELLO:

[Come on rescue me..] [You and me..] FINE:


|---| ------------|------------|------------|------------| ------|
|---| ------------|------------|------------|------------| ------|
|-0-| -3--5-----2-|-3--5--0--0-|-3--5-------|-3--3--5--5-| ------|
|---| -------0----|------------|-------0--0-|------------| -0--0-|

[Il basso suona sempre in corrispondenza dei bassi della chitarra]

Tab by >BaD.TiGeR

To play the most songs, including Rescue Me by Tokio Hotel by ukulele, the most important basic ukulele chords to learn are C chord, D chord, G chord, and Em chord.
These set you up to play a ton of songs, and each of them is easy to learn.

If you are looking for Vergessene Kinder ukulele chords, you have come to the best site.
You can play versatile instrument Vergessene Kinder using ukulele or guitar.
This song by Tokio Hotel can also be played by that instruments.
=

Vergessene Kinder chords has rhythm and included in Zimmer 483 (2007) album.
You can also get other musical genres, including jazz ukulele chords, country music ukulele chords, pop ukulele chords, world music ukulele chords, and rock ukulele chords here.

Vergessene Kinder by Tokio Hotel Ukulele Chords



e:-----------------|-----------------|------------------|-----------------|
B:----3-----3------|----3-----3------|----3-----3-------|----3-----3------|
G:-----------------|-----------------|------------------|-----------------|
D:--5---5----------|--5---5----------|--1---1-----------|--1---0----------|
A:-----------------|-----------------|------------------|-----------------|
E:-----------------|-----------------|------------------|-----------------|

N ganz normaler tag
die strasse wird zum grab
die spuren sind verwischt
ne suche gibt es nicht
kalt ist die Nacht
wer friert ist zu schwach


e:-----------------|-----------------|------------------|-----------------|
B:----3-----3------|----3-----3------|----3-----3-------|----3-----3------|
G:-----------------|-----------------|------------------|-----------------|
D:--5---5----------|--5---5----------|--1---1-----------|--1---0----------|x3
A:-----------------|-----------------|------------------|-----------------|
E:-----------------|-----------------|------------------|-----------------|

niemand wird sie zhln
niemand hat sie gesehn


e:-----------------|-----------------|------------------|----------1------|
B:----3-----3------|----3-----3------|----3-----3-------|----3------------|
G:-----------------|-----------------|------------------|-----------------|
D:--5---5----------|--5---5----------|--1---1-----------|--3---3----------|
A:-----------------|-----------------|------------------|-----------------|
E:-----------------|-----------------|------------------|-----------------|

[pre chorus]

Einsam und verlorn
unsichtbar geborn


e:-----------------|-----------------|------------------|-----------------|
B:-----------------|-----------------|------------------|-----------------|
G:-----------------|-----------------|------------------|----------3---3--|
D:--------5--------|--------5--------|--------5---------|--------3--------|
A:--4---------6----|------------6----|------------6-----|--1--------------|
E:-----------------|--4--------------|--0---------------|-----------------|

beim ersten Schrei erfrorn
Vergessene Kinder


e:-----------------|-----------------|------------------|-----------------|
B:-----------------|-----------------|------------------|-----------------|
G:-----------------|-----------------|------------------|----------3---3--|
D:--------5--------|--------5--------|--6-------5-------|--------3--------|
A:--4---------6----|------------6----|-------6-----6----|--1--------------|
E:-----------------|--4--------------|------------------|-----------------|

name unbekannt
endlos weggerannt


e:-----------------|-----------------|------------------|-----------------|
B:-----------------|-----------------|------------------|-----------------|
G:-----------------|-----------------|------------------|----------3---3--|
D:--------5--------|--------5--------|--------5---------|--------3--------|
A:--4---------6----|------------6----|------------6-----|--1--------------|
E:-----------------|--4--------------|--0---------------|-----------------|

aus der welt verbannt
Vergessene kinder
[ Tab from: http://www.guitartabs.cc/tabs/t/tokio_hotel/vergessene_kinder_tab.html ]


e:-----------------|-----------------|------------------|-----------------|
B:-----------------|-----------------|------------------|-----------------|
G:-----------------|-----------------|------------------|----------3---3--|
D:--------5--------|--------5--------|--6-------5-------|--------3--------|
A:--4---------6----|------------6----|-------6-----6----|--1--------------|
E:-----------------|--4--------------|------------------|-----------------|

(now drum and second guitar enter)

sie sehn
sie fhln
verstehn
genau wie wir


e:-----------------|-----------------|------------------|-----------------|
B:-----------------|-----------------|------------------|-----------------|
G:-----------------|-----------------|------------------|----------3---3--|
D:--------5--------|--------5--------|--------5---------|--------3--------|
A:--4---------6----|------------6----|------------6-----|--1--------------|
E:-----------------|--4--------------|--0---------------|-----------------|

sie lachen
und weinen
wollen Leben
genau wie wir


e:-----------------|-----------------|------------------|-----------------|
B:-----------------|-----------------|------------------|-----------------|
G:-----------------|-----------------|------------------|----------3---3--|
D:--------5--------|--------5--------|--6-------5-------|--------3--------|
A:--4---------6----|------------6----|-------6-----6----|--1--------------|
E:-----------------|--4--------------|------------------|-----------------|

[verse 2]


e:-----------------|-----------------|------------------|-----------------|
B:----3-----3------|----3-----3------|----3-----3-------|----3-----3------|
G:-----------------|-----------------|------------------|-----------------|
D:--5---5----------|--5---5----------|--1---1-----------|--1---0----------|
A:-----------------|-----------------|------------------|-----------------|
E:-----------------|-----------------|------------------|-----------------|

Augen ohne glck
alle trume wurden erstickt
panik vor dem licht
und angst vor jedem gesicht


e:-----------------|-----------------|------------------|-----------------|
B:----3-----3------|----3-----3------|----3-----3-------|----3-----3------|
G:-----------------|-----------------|------------------|-----------------|
D:--5---5----------|--5---5----------|--1---1-----------|--1---0----------|x2
A:-----------------|-----------------|------------------|-----------------|
E:-----------------|-----------------|------------------|-----------------|

schuld die keinen trifft
die zeit heilt nicht


e:-----------------|-----------------|------------------|----------1------|
B:----3-----3------|----3-----3------|----3-----3-------|----3------------|
G:-----------------|-----------------|------------------|-----------------|
D:--5---5----------|--5---5----------|--1---1-----------|--3---3----------|
A:-----------------|-----------------|------------------|-----------------|
E:-----------------|-----------------|------------------|-----------------|

[pre chorus]

genau wie wir (only second guitar)

alles sollte anders sein

alles sollte anders sein (only second guitar)

x2

ganau wie ihr (only second guitar)

It’s my firts tab, it’s possible that there is some mistake but I wrote it with my soul.
Comment if you think that there is some mistake.

Sara – Italy
PROUD Tokio Hotel fan

To play the most songs, including Vergessene Kinder by Tokio Hotel by ukulele, the most important basic ukulele chords to learn are C chord, D chord, G chord, and Em chord.
These set you up to play a many of songs, and each of them is easy to learn.