If you are looking for How Does It Feel ukulele chords, you’ve come to the right site.
You can play versatile instrument How Does It Feel using ukulele or guitar.
This song by The Zutons can also be played by that instruments.
=

How Does It Feel chords has rhythm and included in Tired of Hanging Around (2006) album.
You can also get another musical genres, including jazz ukulele chords, country music ukulele chords, pop ukulele chords, world music ukulele chords, and rock ukulele chords here.

How Does It Feel by The Zutons Ukulele Chords


-------------------------------------------------------------------------------

how does it feel- the zutons


-------------------------------------------------------------------------------

Tabbed By : Grimjaw

Tuning:Eadg (norm)

INTRO (0.05)


G|-----------|
D|-----------|
A|-2----5--4-|X4
E|-----------|

VERSE 1 (0.17)


G|--------------------------------------------------|
D|--------------------------------------------------|
A|-2----5--4----2----5--4----2----5--4----2---------|X2
E|---------------------------------------------3--5-|

BRIDGE (0.40)


G|-----------|
D|-----------|
A|-2----5--4-|X4
E|-----------|

VERSE 2 (0.54)


G|--------------------------------------------------|
D|--------------------------------------------------|
A|-2----5--4----2----5--4----2----5--4----2---------|X2
E|---------------------------------------------3--5-|

BRIDGE (1.18)


G|-----------|
D|-----------|
A|-2----5--4-|X4
E|-----------|

CHORUS (1.31)


G|----------------------|
D|----------------------|
A|-2--2[/]4-4-----------|X4
E|-----------4--4[/]7-7-|

VERSE 3 (1.55)


G|---------------|
D|---------------|
A|-2---2-5-5-4-4-|X3
E|---------------|
G|----------------------|
D|----------------------|

A|-2—2/14141414141414-|


E|----------------------|

BREAKDOWN (2.08)


G|-------------------------------------------------------------------------|
D|-------------------------------------------44-3-4--4-33-4--3-77-6-7--6-77|
A|-0-22-0-2--0-22-0-2--0-55-4-5--4-55-4-5--4-------------------------------|
E|-------------------------------------------------------------------------|

G|—–|
D|-6-7-|
A|—–|X2
E|—–|

CHORUS (2.34)


G|----------------------|
D|----------------------|
A|-2--2[/]4-4-----------|X4
E|-----------4--4[/]7-7-|

OUTRO


G|---------------------------------|
D|---------------------------------|
A|-2--2-2---------/7--7-7--7--7-7--|X4
E|---------3--3-3------------------|
G|------------------------------------|
D|------------------------------------| FINI!
A|-7------5-------4----10-----------2-|
E|------------------------------------|

| (/) LEGATO SLIDE (WHERE YOU ONLY PLAY THE FIST NOTE)
| / slide up
| slide down
| h hammer-on
| p pull-off
| ~ vibrato
| + harmonic
| x Mute note

To play the this songs, including How Does It Feel by The Zutons by ukulele, the most important basic ukulele chords to learn are C chord, D chord, G chord, and Em chord.
These set you up to play a a lot of songs, and each of them is easy to master.

If you are looking for Secrets ukulele chords, you’ve come to the best site.
You can play versatile instrument Secrets using ukulele or guitar.
This song by The Zutons can also be played by that instruments.
=

Secrets chords has rhythm and included in Tired of Hanging Around (2006) album.
You can also get other musical genres, including jazz ukulele chords, country music ukulele chords, pop ukulele chords, world music ukulele chords, and rock ukulele chords here.

Secrets by The Zutons Ukulele Chords


Tabbed by Allen Gregory
Email – allengregory167@hotmail.com

The Zutons – Secrets (Acoustic)

Chords Used

EADGBe
Am 002210
G 320033
C 032010
Am7 002213
G9 320035
G6 320000

Intro Riff (play three times. On 2nd time guitar two plays Am G x 2)

E—————————————|
A-12————————————|
D—-10———-10-9-5–9————–|
G——-9–12–9———–9–14–12–9-|
B—————————————|
e—————————————|

Verse

Everyone’s got secrets

dirty little secrets
Have i got one on you

(Have i got one on you)
Although they may be secrets,

they may show your weakness
Well are they really true

(well are they really true)

Pre-Chorus

Don’t tell your mates

on the council estates
cos there’s no one to trust
Don’t tell the sky as it spits down in your eye
but tell the priest if you must

Verse

cos everyone’s got problems

everyone’s got problems
And everyone’s got stress
Controlling our relations avoiding situations
That end up in a mess

Pre-Chorus

Don’t be afraid
( Tab from: http://www.guitartabs.cc/tabs/z/zutons/secrets_tab_ver_3.html )
if your thoughts are mislaid
cos there’s nothing to fear
Don’t get upset if your memories
make regrets because we’ve all got them here

Chorus

Secrets , secrets, secrets
Are for keeping, keeping, keeping
And if you tell them
They lose their meaning

Bridge

Intro Riff – Guitar 2
Am Am7 Am G G9 G x2 – Guitar 1

Pre-Chorus

Don’t tell your mates

on the council estates
cos there’s no one to trust
Don’t tell the sky as it spits down in your eye
but tell the priest if you must

Chorus

Secrets , secrets, secrets
Are for keeping, keeping, keeping
And if you tell them
They lose their meaning x 2

Outro (guitar 2 plays the intro riff)

Everyone’s got secrets
dirty little secrets
Have i got one on you
(Have i got one on you)
Although they may be secrets,
they may show your weakness
Well are they really true
(well are they really true) x 3 (on 3rd time play this last line slowly followed by G6
Am with one down strum each)

x

To play the this songs, including Secrets by The Zutons by ukulele, the most important basic ukulele chords to learn are C chord, D chord, G chord, and Em chord.
These set you up to play a ton of songs, and each of them is easy to master.

If you are searching for Moons and Horror Shows ukulele chords, you already visit to the best site.
You can play versatile instrument Moons and Horror Shows using ukulele or guitar.
This song by The Zutons can also be played by that instruments.
=

Moons and Horror Shows chords has rhythm and included in Who Killed…… The Zutons? (2004) album.
You can also get another musical style, including jazz ukulele chords, country music ukulele chords, pop ukulele chords, world music ukulele chords, and rock ukulele chords here.

Moons and Horror Shows by The Zutons Ukulele Chords


-------------------------------------------------------------------------------

Moons And Horror Shows – The Zutons


-------------------------------------------------------------------------------

Tabbed by: The Phwbt

Tuning: Standard

C/G 332010 (I actually like to play a C and alternate my ring finger between
the A and E strings)
G7 320001
Dm/A x00231

This song is pretty easy. It follows the C/G, G7, Dm/A, C/G pattern almost throughout.
To go with the song you basically thumb pluck the bass notes and strum the rest of the
chord (Strum once or twice depending on your preference until you slow it down at the
end. Then you need to strum twice).

[C/G] [Dm/A] [C/G]


e|----0----0-----0----0--|---1----1-----1----1--|---1----1----1----1--|---0----0-----0---0--|
B|----1----1-----1----1--|---0----0-----0----0--|---3----3----3----3--|---1----1-----1---1--|
G|----0----0-----0----0--|---0----0-----0----0--|---2----2----2----2--|---0----0-----0---0--|
D|----2----2-----2----2--|---0----0-----0----0--|-0---------0---------|---2----2-----2---2--|
A|-3-----------3---------|-2----------2---------|------0---------0----|-3----------3--------|
E|-------3----------3----|------3----------3----|---------------------|------3----------3---|

( Tab from: http://www.guitartabs.cc/tabs/z/zutons/moons_and_horror_shows_crd_ver_2.html )
Intro: C/G G7 Dm/A
[C/G]Today is a day when many fine things will come
[Dm/A]Today is just a memory tom[C/G]orrow

I know that there’s some bad things to come
But I’ll forget them all until tomorrow
The days are long and nights don’t come at all
We eat and drink and then we fall asleep
And then I dream of moons and horror shows
And then I’ll wake up fresh and new tomorrow
Then I dream of moons and horror shows
And then I’ll wake up fresh and new tomorrow

(F)Hmmmm… (D) Hmmmm (F)Hmmmm… (D) Hmmmm

(F)Hmmmm… (D) Hmmmm (G)Hmmmmmmmmmmmmm…

Then throw this in nice and slow


e|-------------|
B|-------------|
G|-------------|
D|-------------|
A|-----0---2---|
E|--3----------|

And pick up with…..

[C/G]Then I dream of moons and horror shows
[Dm/A]And then I’ll wake up fresh and new to[C/G]morrow

And finally end with…

[C/G]


e|-----0--0-------0--0-----------0--------|
B|-----1--1-------1--1-----------1--------|
G|-----0--0-------0--0-----------0--------|
D|-----2--2-------2--2-----------2--------|
A|--3--------------------3-------3--------|
E|------------3--------------3------------|

Enjoy

To play the most songs, including Moons and Horror Shows by The Zutons by ukulele, the most crucial basic ukulele chords to learn are C chord, D chord, G chord, and Em chord.
These set you up to play a a lot of songs, and each of them is easy to master.