If you are looking for Lakas-Tama ukulele chords, you have come to the best site.
You can play versatile instrument Lakas-Tama using ukulele or guitar.
This song by Siakol can also be played by that instruments.
=

Lakas-Tama chords has rhythm and included in Tayo Na Sa Paraiso (1996) album.
You can also get another musical genres, including jazz ukulele chords, country music ukulele chords, pop ukulele chords, world music ukulele chords, and rock ukulele chords here.

Lakas-Tama by Siakol Ukulele Chords


Chord’s By SpaRRoW135

Lakas Tama (by: Siakol)

Intro: Eb-B-Bb-Eb-; (4x)
Eb-B-Bb-Eb-; (2x)

Bulag ang pag-ibig kasabihan na sa atin
Ngunit para sa ‘yo ang pag-ibig ko ay duling
Pagkat dalawang beses ako sa ‘yo may pagtingin
Kaytindi ng ‘yong dating sa puso’t damdamin.
Sa tunay kong pagmamahal natotorpe sa ‘yo

Mukhang pinasukan ng daga ang puso kong bato
Dahil alam ko rin walang ibubunga ito
Natatakot akong mawala ang isang katulad mo.

Chorus
Lakas tama! Ako’y nawawala
Nawawala ang isip ko pag nakikita ka, sinta
Lakas tama! Ako’y nawawala
Bb Eb (break)
Nawawala ang isip ko pag nakikita ka,
(break) (pause)
sinta.

Ad lib: Eb-B-Bb-Eb-; (2x)

(1st verse chord pattern)
Mga kamay ko ay nanginginig na sa iyo
Na makayakap ka sa tuwing giniginaw ako
At ang iyong labi na sa akin ay tumutukso
Kailan mahahagkan nang matapos na ang gulo?

(1st verse chord pattern)
Sa pagputi ba ng uwak mo ako sasagutin
Kung ang kulay ko nga ay kayhirap paputiin
Ipagpatawad mo na lang kung agad kang mahalin
Gan’to ako kung umibig medyo napa-praning.

Repeat Chorus & Ad lib

Repeat Chorus 2x
tnx….LonG LivE ThE RockerZ…..

To play the most songs, including Lakas-Tama by Siakol by ukulele, the most important basic ukulele chords to learn are C chord, D chord, G chord, and Em chord.
These set you up to play a many of songs, and each of them is easy to learn.

If you are looking for Anak Ng Puta ukulele chords, you’ve visit to the best site.
You can play versatile instrument Anak Ng Puta using ukulele or guitar.
This song by Siakol can also be played by that instruments.
=

Anak Ng Puta chords has rhythm and included in Tayo Na Sa Paraiso (1996) album.
You can also get other musical genres, including jazz ukulele chords, country music ukulele chords, pop ukulele chords, world music ukulele chords, and rock ukulele chords here.

Anak Ng Puta by Siakol Ukulele Chords


Tuning: STANDARD

“Simple lamang ang kantang ito, ngunit kung ating uunawain ang nilalaman ng kantang
ito mapapabilib ka”!!!!

Patuloy sa pag-gawa ng magagandang kanta Noel Palomo at sa iyong bandang SIAKOL….
Mula sa walang sawang tumatangkilik sa inyong mga kanta sa Davao..
Intro Am,F,Am,E

Ibang klase putang ina may bata akong nakita
Umiiyak nagdaramdam wala daw syang magulang
Ng aking pagmasdan ako ay nahabag
Ang mga walang hiya sya palay pinalaglag

Chorus
Bakit daw ganitong buhay ang sinapit nya

Bakit hindi nila hinayaang liwanag ay makita
Ang sabi ko’y wag mangamba at may langit ka pa
Dito sa aming mundo mas impyerno anak ng puta!

Nagbebenta ng katawan hanap buhay bayan?
Silay mga bunga lamang ng kalibugan
Panay kama laging nais tapos mabubuntis
At ang kanyang anak parang kutong tinitiris

Repeat Chorus

Lead Am,F,Am,E 2x
Dm,Am,E,Am,Dm,Am,F,E 2x

Ang anak minamahal hindi tinatapon
Kinakarga dinuduyan hindi sa garapon
Itong aking sinasabi sana ay madama
Nais nila’y katarungan mga anak ng puta!

—————————————————————————–

Naka-mamangha ang kantang ito, lalong lalo na ang CHORDS kayat please naman paki rate
Binabati ko pala yung mga ka banda ko sina Jonell, JR at Lee…
SIAKOL MUSIC IS THE BEST…. mula sa 4cube band ng Davao……

Kung may tanong o request ng chords sa mga kanta ng SIAKOL paki contact lang sa cell# na ito 09197484641

To play the this songs, including Anak Ng Puta by Siakol by ukulele, the most important basic ukulele chords to learn are C chord, D chord, G chord, and Em chord.
These set you up to play a ton of songs, and each of them is easy to master.

If you are looking for Bale-wala ukulele chords, you already come to the right site.
You can play versatile instrument Bale-wala using ukulele or guitar.
This song by Siakol can also be played by that instruments.
=

Bale-wala chords has rhythm and included in Other Songs album.
You can also get other musical style, including jazz ukulele chords, country music ukulele chords, pop ukulele chords, world music ukulele chords, and rock ukulele chords here.

Bale-wala by Siakol Ukulele Chords

kung may mali wag kayu sakin mag reklamo

INTRO: G D Em C 4x

anong silbi nitong mata
kung di kita nakikita
ang boses mong anong ganda
na musika saking tenga
at ang pag ibig mong hinihintay ng damdamin
bat di mo ipakita bakit di natin gawin

buti ang unan niyayakap mo
buti pa ang lipstik may halik sayo
buti ka pa minamahal kita
pero ako pero ako

chorus:

balewala sayo ho ho
balewala sayo ho ho
balewala sayo ho ho
balewala sayo ho ho

naaalala ko pa nga nong sabihin kong mahal kita
bakit bigla kang natawa di naman ako nambobola
pero ayos na rin at least nasabi ko sayo
siguro ay masaya ka na kawawa naman ako

buti ang unan niyayakap mo
buti pa ang lipstik may halik sayo
buti ka pa minamahal kita
pero ako pero ako

repeat chorus:
adlib:

igagalang ko ang pasya ng yong damdamin
kahit uso ang rape hinding hindi ka re reypin
dadatain ko na lang na ako’y mahal mo rin
kahit di mo pa ako pinapansin

anong silbi nitong mata
kung di kita nakikita
ang boses mong anong ganda
na musika saking tenga
at ang pag ibig mong hinihintay ng damdamin
bat di mo ipakita bakit di natin gawin

buti ang unan niyayakap mo
buti pa ang lipstik may halik sayo
buti ka pa minamahal kita
pero ako pero ako

repeat chorus:

balewala sayo!!!

To play the this songs, including Bale-wala by Siakol by ukulele, the most important basic ukulele chords to learn are C chord, D chord, G chord, and Em chord.
These set you up to play a many of songs, and each of them is easy to learn.

If you are searching for Kanto ukulele chords, you already come to the right site.
You can play versatile instrument Kanto using ukulele or guitar.
This song by Siakol can also be played by that instruments.
=

Kanto chords has rhythm and included in Tayo Na Sa Paraiso (1996) album.
You can also find other musical style, including jazz ukulele chords, country music ukulele chords, pop ukulele chords, world music ukulele chords, and rock ukulele chords here.

Kanto by Siakol Ukulele Chords


kanto by siakol
ear tabber:bRyAn hussEin dAno
schooL:Mindanao State University

anti-bwisits!!!!!!!!!!!!!!!!!!!
Intro:E-G#-A-B 4x

e|-13-14^——12-12-13–13-15-13/15-14^——-12-12-13–13-15-13/15-14^—|
G|——-13-13—————————13–13————————-13-|
B|————————————————————————-|
D|————————————————————————-|
A|————————————————————————-|
E|————————————————————————-|

[E-G#-A-B]nakatambay sa may kanto nagiisip ng kung anu-ano
and ang nagdaang mga araw ay ating binabalik-tanaw
[E-G#-A-B]
[E-G#-A-B]parang ulap ang umaga nasaan kaya ang barkada
ok sana kung may pera upang ako ay nakasama

REFRAIN:
[G#-A]masakit tanggapin
ang katootohanan
kunga wala kang pera

[G#-B]wala ka ring kaibigan

E-G#-A-B 2x

e|-13-14^——12-12-13–13-15-13/15-14^——-12-12-13–13-15-13/15-14^—|
G|——-13-13—————————13–13————————-13-|
B|————————————————————————-|
D|————————————————————————-|
A|————————————————————————-|
E|————————————————————————-|

[E-G#-A-B]nakakasama mga tropa sa inuman akoy gitarista
umaawit parang ibon ayus na rin akoy naroroon

[E-G#-A-B]

[E-G#-A-B]balang araw konting tiyaga makatitipid na rin ng nilaga
bahay at lupa, maraming pera pagkat akoy makakasama mo na

REFRAIN

E-G#-A-B 2x

REFRAIN
drumbeat….

E-G#-A-B 2x
nakatambay sa may kanto naiinip sa bayang ito
nakangiti, nakatawa, nababaliw na sa problema

E-G#-A-B 4x

e|-13-14^——12-12-13–13-15-13/15-14^——-12-12-13–13-15-13/15-14^-17-|
G|——-13-13—————————13–13—————————–|
B|————————————————————————–|
D|————————————————————————–|
A|————————————————————————–|
E|————————————————————————–|

To play the most songs, including Kanto by Siakol by ukulele, the most important basic ukulele chords to learn are C chord, D chord, G chord, and Em chord.
These set you up to play a many of songs, and each of them is easy to master.

If you are looking for Kwarto ukulele chords, you have come to the right place.
You can play versatile instrument Kwarto using ukulele or guitar.
This song by Siakol can also be played by that instruments.
=

Kwarto chords has rhythm and included in Kabilang Mundo (2005) album.
You can also get other musical genres, including jazz ukulele chords, country music ukulele chords, pop ukulele chords, world music ukulele chords, and rock ukulele chords here.

Kwarto by Siakol Ukulele Chords

song title: KWARTO
band/artist: siakol
tuning: standard
Notre Dame Inoversity
[when reggae meets emo]

maganda tong isang toh. paksulan ang tirada.
tangkilikin natin ang sariling atin (OPM).

[intro(bass)]
Note: echo to the maximum toh. pero it can play also with a repeated strums.

Chords: D5-Bb5-F5-C5

riff1

e |——–:——–:——–:———–|
a |—3—-:——–:—6—-:———–|
G |—2—-:—3—-:—5—-:—5——-| echo system to, pero pwede ring
D |——–:—3—-:——–:—5——-| paulit-ulit na down-stroke.
A |——–:——–:——–:———–| ulit-uliting lng toh
E |——–:——–:——–:———–|


sinasariwa ang nakaraan
nabubulok sa kwarto kong puno ng usok
walang problema
nakakatok, dito ang lungkot ay

riff2

e |———–7-5——-7-6———————————-|
a |——————————-6-8(bent)-10-8-6-8———|
G |——-5h7——-5h7——-5h7—————————-|
D |———————————————————-|
A |———————————————————-|
E |———————————————————-|

..di papasok haaahh. hahhh.. lungkot ay di papa..

e |———–7-5——-7-6———————————-|
a |——————————-6-8(bent)–8-6/8———–|
G |——-5h7——-5h7——-5h7—————————-|
D |———————————————————-|
A |———————————————————-|
E |———————————————————-|

..sok haaahhahhh.. hahhhh…

ultin lang ung riff1


pinagmamasdan ang mga ala-ala
nahalungkat, sa kwarto kong sobra ang kalat
walang maingay, nakatapat
dito napapanatag..

e |———–7-5——-7-6———————————-|
a |——————————-6-8(bent)-10-8-6-8———|
G |——-5h7——-5h7——-5h7—————————-|
D |———————————————————-|
A |———————————————————-|
E |———————————————————-|

..ang lahat haaahh. hahhh.. napapanatag ang la..

e |———–7-5——-7-6———————————-|
a |——————————-6-8(bent)–8-6/8———–|
G |——-5h7——-5h7——-5h7—————————-|
D |———————————————————-|
A |———————————————————-|
E |———————————————————-|

..hat haaahhahhh.. hahhhh…


chords: D5 Bb5 F5 C5

e |—————————————————|
a |—————————————————|
G |—————————————————|
D |–77777777———————–55555555———-|
A |–55555555–88888888–333333333–33333333———-|
E |————66666666–111111111——————–|

bawal! bawal ang nakasimangot
dito sa apat na sulok ng aking kwarto (2x)


nagkukulong sa katahimikan
nalalasap, sa ibang lugar ay di mahanap
walang pag-asa na magaganap
dito mas masarap mangarap..

[ulitin lang ung riff2]

ahhaahh.. dito mas masarap mangarap. ahaahhaha..

e |—————–1——-3p1-3–1-3-1-3-3p1-1————-|
a |–3p1-3–1-3-1-3——————————————|
G |———————————————————-|
D |———————————————————-|
A |———————————————————-|
E |———————————————————-|
e |–5p3-5–3-5-3-5p3-3—–3p1-3–1-3-1-3-3p1-1————-|
a |———————————————————-|
G |———————————————————-|
D |———————————————————-|
A |———————————————————-|
E |———————————————————-|

[repeat verse1]

———————————————-

| 09065097530 |

———————————————-

To play the this songs, including Kwarto by Siakol by ukulele, the most crucial basic ukulele chords to learn are C chord, D chord, G chord, and Em chord.
These set you up to play a ton of songs, and each of them is easy to master.

If you are looking for Balang Araw ukulele chords, you’ve come to the right site.
You can play versatile instrument Balang Araw using ukulele or guitar.
This song by Siakol can also be played by that instruments.
=

Balang Araw chords has rhythm and included in Sa Pag-Ikot Ng Mundo (2000) album.
You can also get another musical genres, including jazz ukulele chords, country music ukulele chords, pop ukulele chords, world music ukulele chords, and rock ukulele chords here.

Balang Araw by Siakol Ukulele Chords


Title : Balang Araw
Artist : Siakol

“kun san ka masaya..”

Intro


E |--------------------------------------------------------------|
B |--------------------------------------------------------------|
G |-----7--------------------------------------------------------|
D |-----7--------4--------5--------7-----------------------------| 2x
A |-----5--------4--------5--------7-----------------------------|
E |--------------2--------3--------5------5h6-6p5----------------|

Verse1


E |-----5--------2--------3--------5-----------------------------|
B |-----7--------2--------3--------5-----------------------------|
G |-----7--------2--------4--------6-----------------------------|
D |-----7--------4--------5--------7-----------------------------| 2x
A |-----5--------4--------5--------7-----------------------------|
E |--------------2--------3--------5-----------------------------|

Mukhang hindi mo pa siya nalilimutan
Tila dala mo pa bunga ng kanyang paglisan


E |-----3--------5----------3---------5--------------------------|
B |-----3--------5----------3---------5--------------------------|
G |-----4--------6----------4---------6--------------------------|
D |-----5--------7----------5---------7--------------------------|
A |-----5--------7----------5---------7--------------------------|
E |-----3--------5----------3---------5--------------------------|

At makikita sa mata Ang pagkawala ng sigla

Verse2 D-F#m-G-A (2x)
Mukhang pinipilit mo lang ang ngumiti
Na di naman nababakas sayong labi
At di [G-A-G-A]ko na napupuna
Binibitawan mong tawa

Chorus


E |-----5--------2--------3--------5-----------------------------|
B |-----7--------2--------3--------5-----------------------------|
G |-----7--------2--------4--------6-----------------------------|
D |-----7--------4--------5--------7-----------------------------| 2x
A |-----5--------4--------5--------7-----------------------------|
E |--------------2--------3--------5-----------------------------|

Hayaan mo nalang ang pagpatak ng luha
Tulad ng ulan na dulot satin ay baha


E |-----5--------2--------3--------3-----------------------------|
B |-----7--------2--------3--------3-----------------------------|
G |-----7--------2--------4--------3-----------------------------|
D |-----7--------4--------5--------5-----------------------------|
A |-----5--------4--------5--------5-----------------------------|
E |--------------2--------3--------3-----------------------------|

At balang araw ay makikita mo


E |-----2--------2--------3--------5-----------------------------|
B |-----2--------3--------3--------5-----------------------------|
G |-----2--------4--------4--------6-----------------------------|
D |-----4--------4--------5--------7-----------------------------|
A |-----4--------2--------5--------7-----------------------------|
E |-----2--------2--------3--------5-----------------------------|

Sa pagtila nito ay may pag asa pa na naghihintay sayo

Intro
Verse3
Mukhang nakakulong kana sa alaala
Palayain mo’t ibuhos ang nadarama
At pagkatapos ng lahat
Wala na sa dibdib mo ang bigat
Chorus

Adlib


E |----------------------------------------------------------------|
B |----------------------------------------------------------------|
G |--10b-10b-10-8-6-8-6------7---7-12-10-9-12-10-9-----------------|
D |----------------------7-9---9-----------------------------------|
A |----------------------------------------------------------------|
E |----------------------------------------------------------------|
E |----------------------------------------------------------------|
B |--14b~141414--12b~121212--1012b-12b--10-8-7-8-7----------------|
G |----------------------------------------------------------------|
D |----------------------------------------------------------------|
A |----------------------------------------------------------------|
E |----------------------------------------------------------------|
E |----------------------------------------------------------------|
B |----------------------------------------------------------------|
G |--12-10-9--12-10-9/7--7-7-7-7---12-10-9--12-10-97--7-7-7-------|
D |----------------------7-7-7-7-----------------------7-7-7-------|
A |----------------------5-5-5-5-----------------------5-5-5-------|
E |----------------------------------------------------------------|

Chorus

[-End-]
pde po khit ndi bar chords gamitin nu dito o kaya kun gusto nu power chords
gamitin nu.. bahala kayo kun san kayo masaya ok!?..c”,)

To play the this songs, including Balang Araw by Siakol by ukulele, the most important basic ukulele chords to learn are C chord, D chord, G chord, and Em chord.
These set you up to play a a lot of songs, and each of them is easy to master.

If you are looking for Bidyoke ukulele chords, you’ve visit to the right site.
You can play versatile instrument Bidyoke using ukulele or guitar.
This song by Siakol can also be played by that instruments.
=

Bidyoke chords has rhythm and included in Kabilang Mundo (2005) album.
You can also find another musical style, including jazz ukulele chords, country music ukulele chords, pop ukulele chords, world music ukulele chords, and rock ukulele chords here.

Bidyoke by Siakol Ukulele Chords

#
#siakol-bidyoke
#album;kabilang mundo
#jeremy69k@yahoo.com
#
#
#standard tuning;
#


e-----------------------------------------------------|

#


b-----------------------------------------------------|

#


g----------------------------7766---------------------|

#


d-----------------9999-5555------99-7777--9999-5555---|

#


a---5544----------9999-5555---------------9999-5555---|

#


e--------77-5555--7777-3333---------------7777-3333---|

#
Malalim na itong gbi
Dapat tayong magsindi
Meron naman kuryente
Tv nakabakante
Wala na rin masabI
Isalang muna pare
Buksan ang bidyoke
INTERLUDE D, A Bm,G

reapet VERSE CHORDS
Malalim na itong gabi
Dapat maghapi-hapi
Tayo ng mgkanta
My way na walang kamatayan
Ang Mic ay pag-agawan
Isalang muna na pare..
Buksan ang bidyoke

Interlude:D,a,Bm g ,reapet intro,& verse chords
Malalim na itong gabi..
Dapat problema ay itabi
Sai ng kapit bahay
Kahit na maingay
Basta my tinatagay
Isalang mo na pare..

any comment..txt me n lng…09282409744..hehe

To play the this songs, including Bidyoke by Siakol by ukulele, the most important basic ukulele chords to learn are C chord, D chord, G chord, and Em chord.
These set you up to play a many of songs, and each of them is easy to master.

If you are searching for Ituloy Mo Lang ukulele chords, you already visit to the right site.
You can play versatile instrument Ituloy Mo Lang using ukulele or guitar.
This song by Siakol can also be played by that instruments.
=

Ituloy Mo Lang chords has rhythm and included in Tropa (2010) album.
You can also find other musical genres, including jazz ukulele chords, country music ukulele chords, pop ukulele chords, world music ukulele chords, and rock ukulele chords here.

Ituloy Mo Lang by Siakol Ukulele Chords


by Siakol
tabbed by ferdz tobats
email: tobatsdrive@yahoo.com
time: 1:20
date: march 07, 2011

intro:
guitar 1: 2x


e|--------------------------------------------------------------|
B|--------0-2h3-2-0h2----------2-------2----------0-------------|
G|------2-------------2------4-----4------------1------2---1----|
D|----2---------------------------------------------------------|
A|--0-----------------------------------------------------------|
E|------------------------2------2---3----2--0-------0---0------|

guitar 1: (srum)
A F#m E D 2x


e|-----------------2--------|
B|----10---7---5---3--------|
G|----9----6---4---2--------|
D|----7----4---2---0--------|
A|--------------------------|
E|--------------------------|

guitar 2: Lead


e|-------------------------------------------------------|
B|---10--------------------------------------------------|
G|---9--(strum)-9-13-14-6666-13-14-9999-13-14-7777-6-----|
D|---7----------x--x--x-xxxx--x--x-xxxx--x--x-xxxx-x-----|
A|--------------7-11-12-4444-11-12-7777-11-12-5555-4-----|
E|-------------------------------------------------------|
e|-------------------------------------------------------|
B|---10--------------------------------------------------|
G|---9--(strum)-9-13-14-6666-13-14-9999-13-14-7----------|
D|---7----------x--x--x-xxxx--x--x-xxxx--x--x-x----------|
A|--------------7-11-12-4444-11-12-7777-11-12-5----------|
E|-------------------------------------------------------|

verse: A2 F#m D E
pre chorus: Bm E (F#m)

chorus: A F#m D E

solo: A F#m D E 2X


e|--------------------------------------------------------|
B|-----10~-10-12-14-15--14~-12-10~-10-12-14-15-14-12~-----|
G|--9-------------------------------------------------9~--|
D|--------------------------------------------------------|
A|--------------------------------------------------------|
E|--------------------------------------------------------|
--------------------------------------------|
--------------------------------------------|
------999--777------------------------------|
-9h11------------11-11-11-999-777-----------|
--------------------------------------------|
--------------------------------------------|
e|------------------------------------------------------|
B|-----10~-10-12-14-15--14s-17-15-14-12-14-15-14-12s17--|
G|--9---------------------------------------------------|
D|------------------------------------------------------|
A|------------------------------------------------------|
E|------------------------------------------------------|
--------------------------------------------------------|
--------17-17-17-15-15-15-------------------------------|
-s16-18-------------------18-18-18-16-16-16-14-13-14-16-|
--------------------------------------------------------|
--------------------------------------------------------|
--------------------------------------------------------|

I
Noong bata ka pa si Darna ang ginagaya
Minsan nama’y nagbi-bistida
Maging sa laruan manika ang napag-tripan
Ayaw mo ng baril-barilan.

Refrain:
‘Di ka nila sinasali
Hindi ka raw tunay na lalaki.

II
Gusto ng tatay mo na ika’y mag-sundalo
Pero babae ang puso mo
Kahit lunurin ka wala ring napala sila
Nung sabi mong ika’y sirena.

Refrain II:
‘Wag kang mag-alala
Matatanggap ka rin nila.

Chorus:
At kahit na ano pa ang gusto mo
Basta wala ka bang tinatapakan na tao,
Ituloy mo lang ito!
Ang mahalaga ikaw ay masaya
‘Wag mong intindihin ang sasabihin ng iba,
Sila ang may problema!

Interlude:

III
Walang pumapansin sa natatangi mong galing
Mas madalas ka pang laitin
Pinapakita mo na may silbi ka sa mundo
Ngunit walang rumirespeto.

Refrain III:
Lagi na lang iisipin
Sila na lang ang unawain.

(Repeat Chorus)

Adlib:

(Repeat Refrain II)

(Repeat Chorus 2X)

Coda:
Silang lumalait, silang mahilig manakit
Silang ‘di pupunta sa langit. (2X)

END

To play the this songs, including Ituloy Mo Lang by Siakol by ukulele, the most crucial basic ukulele chords to learn are C chord, D chord, G chord, and Em chord.
These set you up to play a many of songs, and each of them is easy to learn.

If you are searching for Galit ukulele chords, you’ve come to the best place.
You can play versatile instrument Galit using ukulele or guitar.
This song by Siakol can also be played by that instruments.
=

Galit chords has rhythm and included in Rekta (1998) album.
You can also find another musical style, including jazz ukulele chords, country music ukulele chords, pop ukulele chords, world music ukulele chords, and rock ukulele chords here.

Galit by Siakol Ukulele Chords


GALIT (by: Siakol)

Intro: A C#m D E 2x

MINSAY NAGSASAWA TAYO DAHIL SA PANG AABUSO
TIBOK NG PUSO’Y BUMABAGAL NAWAWALAN NG PAGMAMAHAL
OHOWOO PAGMAMAHAL MMMMMM
MINSAY NAIINIS NARIN SA BABALANG DAPAT SUNDIN
NABIBINGI’T NAUUTAL NAWAWALAN NG PAGMAMAHAL
OHOWOO PAGMAMAHAL MMMMMM

CHORUS:

GALIT ANG SYANG PUMAPALIT SA DAMDAMIN NATING GIPIT
GALIT ANG SYANG PUMAPALIT SA DAMDAMIN NATING GIPIT
MINSAY NAPAPAGOD TAYO TAPUSIN NA ANG BUHAY NATO
GINAGAWA TAYONG HANGAL NAWAWALAN NG PAGMAMAHAL
OHOWOO PAGMAMAHAL MMMMMM

ADLIB: A C#m D E

————–0——————0——–|
——2—0—–2–2p0——0————-|
————————–2-1————-|
——————————————|
——————————————|
——————————————|
——————————————|
—–2-2p0-h2-(3)-2h-35—————–|
——————————————|
——————————————|
——————————————|
——————————————|
——————————————|
—3-3p2-h3-5-(3)-2h3p2-0-2————–|
——————————————|
——————————————|
——————————————|
——————————————|
——0———————0————-|
—-0—-2-2p0——–0——————-|
——————2–1——————–|
——————————————|
——————————————|
——————————————|
——————————————|
—-2-2p0-h2–(3)-2h-35—————–|
——————————————|
——————————————|
——————————————|
——————————————|
——————————————|
—-3-3p2h35-(3)-2h3p2-0-2—————|
——————————————|
——————————————|
——————————————|
——————————————|

(REPEAT CHORUS)

MINSAY NAPIPILITAN OO PAKITANG TAO LANG
KAYA PILITIN MANG MAGTAGAL WALA NA AKONG PAGMAMAHAL

WALA NA AKONG PAGMAMAHAL 8X
HOOOOO AAHHHH

any questions & comments?

To play the this songs, including Galit by Siakol by ukulele, the most important basic ukulele chords to learn are C chord, D chord, G chord, and Em chord.
These set you up to play a ton of songs, and each of them is easy to learn.

If you are looking for Inihaw ukulele chords, you already come to the right place.
You can play versatile instrument Inihaw using ukulele or guitar.
This song by Siakol can also be played by that instruments.
=

Inihaw chords has rhythm and included in Kabilang Mundo (2005) album.
You can also find another musical genres, including jazz ukulele chords, country music ukulele chords, pop ukulele chords, world music ukulele chords, and rock ukulele chords here.

Inihaw by Siakol Ukulele Chords

Song : Inihaw
Band/Artist: Siakol

Hi Im John Donovan Bernabe
Sana Magustuhan Nyo…

Verse I:
Nakatikim ka na ba ng lupet na hum[D-Dsus]ahagupet
Nakatikim ka na ba ng lupet na hum[D-Dsus]ahagupet
Nabulabog ka na ba ng kulog?
Tinamaan ka na ba ng kidlat?
Bm E (Break) A-E
Nakatikim ka na ba ng lupet na humahagupet?

Nasapul ka na ba ng bato ng tir[D-Dsus]ador sa ulo
Nasapul ka na ba ng bato ng tir[D-Dsus]ador sa ulo
Nasabugan ka na ba ng bomba?
Naibala ka na ba sa kanyon?
Bm E (Break) A-E
Nasapul ka na ba ng bato ng tirador sa ulo?

Nakakita ka na ba ng bankay na muling n[D-Dsus]abuhay
Nakakita ka na ba ng bankay na muling n[D-Dsus]abuhay
Nausukan ka na ba ng kapre?
Kinilabutan ka na ba sa multo?
Bm E (Break) A-E
Nakakita ka na ba ng bangkay na muling nabuhay?

Natangay ka na ba ng hangin na malakas ang [D-Dsus]dating
Natangay ka na ba ng hangin na malakas ang [D-Dsus]dating
Napuruhan ka na ba ng isa?
Nabilangan ka na ba ng sampu?
Bm E (Break)
Natangay ka na ba ng hangin na
malakas ang dat[A-E]ing?
Humahagupet!!!
Humahagupet!!!
Humahagupet!!!…

Hehe…..Paki Rate nalng po..Thx..
Friendster: vince_00000@yahoo.com

To play the this songs, including Inihaw by Siakol by ukulele, the most important basic ukulele chords to learn are C chord, D chord, G chord, and Em chord.
These set you up to play a a lot of songs, and each of them is easy to learn.

  • 1
  • 2