If you are searching for Naked Lunch ukulele chords, you’ve come to the best place.
You can play versatile instrument Naked Lunch using ukulele or guitar.
This song by Showbread can also be played by that instruments.
=

Naked Lunch chords has rhythm and included in Age of Reptiles (2006) album.
You can also get another musical genres, including jazz ukulele chords, country music ukulele chords, pop ukulele chords, world music ukulele chords, and rock ukulele chords here.

Naked Lunch by Showbread Ukulele Chords


This an accurate (at least I`m pretty sure) tab for the song Naked Lunch,
off the Age of Reptiles album.

EADGBE tuning

Intro/Verse:


e------------------------------------
b------------------------------------
g------------------------------------
d--------------------9999-9-9-9999-9-
a--9999-9-9-9999-9-9-7777-7-7-7777-7-
e--7777-7-7-7777-7-7-7777-7-7-7777-7-

continue repeating this part. Right after the bass comes in…


e--------------------------------------
b--------------------------------------
g--------------------------------------
d--------------------7777-7-7----------
a--9999-9-9999-9999--5555-5-5-7777-7-7-
e--7777-7-7777-7777-----------5555-5-5-

Then return to the original riff.

Chorus:
F#5 E5 (low E…022xxx)
B5 D5 E5 (high E…x799xx)

Here is the riff that Matt plays right after the chorus:


e------------------------------------
b------------------------------------
g------------------------------------
d---------4-2-0--------2-0-----------
a--22-0-2-------22-0-2-----4-22-0-2--
e------------------------------------

The bass plays alone for most of the verse, then the guitar comes in later
and continues the verse riff back into the chorus. After the chorus is the
solo. I don`t have a guitar with me right now so I can`t tab that out, but
there is another tab out there for it. Not sure of where it is, but you can
Google “showbread naked lunch solo tab” and you should find in one of the
first results.

After the solo, finish the song with the chorus and repeat twice.

Ratings and comments are welcome!

To play the most songs, including Naked Lunch by Showbread by ukulele, the most crucial basic ukulele chords to learn are C chord, D chord, G chord, and Em chord.
These set you up to play a a lot of songs, and each of them is easy to learn.

If you are looking for I Had Music in My Heart, but Now My Heart Is Broken ukulele chords, you have come to the right place.
You can play versatile instrument I Had Music in My Heart, but Now My Heart Is Broken using ukulele or guitar.
This song by Showbread can also be played by that instruments.
=

I Had Music in My Heart, but Now My Heart Is Broken chords has rhythm and included in Life, Kisses, and Other Wasted Efforts album.
You can also get another musical style, including jazz ukulele chords, country music ukulele chords, pop ukulele chords, world music ukulele chords, and rock ukulele chords here.

I Had Music in My Heart, but Now My Heart Is Broken by Showbread Ukulele Chords


Tabbed by: james grillo
E-mail: jagrillo@mchsi.com

hhammer on
ppull off
ddown
uup
bbend
/slide
rlet ring
p.m.palm mute
+harmonics

Intro and Chorus: (Distortion)


e|------------------------------------------------------------------------|
B|------------------------------------------------------------------------|
G|---88--8+8+---------8+8+-----------8+8+---------8+8+--------------------|
D|---88--8+8+--55-66--8+8+--99-88----8+8+--55-66--8+8+--99-88-------------|
A|---66--6+6+--55-66--6+6+--99-88----6+6+--55-66--6+6+--99-88-------------|
E|-------------33-44--------77-66----------33-44--------77-66-------------|

Verse:(Clean)


e|-----------------------------------------|
B|-----------------------------------------|
G|---88------55----------88----------------|
D|---88--88--55--55--66--88--88------------|
A|---66--88--33--55--66--66--88------------|
E|-------66------33--44------66------------|

Verse:(Distortion)

p.m.


e|------------------------------------------|
B|------------------------------------------|
G|--------88------55----------88------------|
D|---88---88--88--55--55--66--88--88--------|
A|---88---66--88--33--55--66--66--88--------|
E|---66-------66------33--44------66--------|

Chorus: (Distortion)


e|-----------------------------------------------------------------------|
B|-----------------------------------------------------------------------|
G|-------------------9--------9-----9---------9+-------9-----------------|
D|---8-7-5-2---------9-5-7-5--9-5-7-9---------9+-------9-----------------|
A|---8-7-5-2r--------7-5-7-5--7-5-7-7b--------7+-------7r----------------|
E|---6-5-3-----x1------3-5-3----3-5-----x4--------x16--------------------|

Intro and Chorus: (Distortion)


e|------------------------------------------------------------------------|
B|------------------------------------------------------------------------|
G|---88--8+8+---------8+8+-----------8+8+---------8+8+--------------------|
D|---88--8+8+--55-66--8+8+--99-88----8+8+--55-66--8+8+--99-88-------------|
A|---66--6+6+--55-66--6+6+--99-88----6+6+--55-66--6+6+--99-88-------------|
E|-------------33-44--------77-66----------33-44--------77-66-------------|

On first verse (clean), theres a bass solo.

Verse:(Distortion)

p.m.


e|------------------------------------------|
B|------------------------------------------|
G|-------88------55----------88-------------|
D|---8---88--88--55--55--66--88--88---------|
A|---8---66--88--33--55--66--66--88---------|
E|---6-------66------33--44------66---------|

Bridge: (Distortion)


e|-------------------|
B|-------------------|
G|-------------------|
D|---8-7-5-2---------|
A|---8-7-5-2---------|
E|---6-5-3-----x1----|

Bridge: (Clean)


e|-------------------|
B|-------------------|
G|---88--------------|
D|---88--88----------|
A|---66--88----------|
E|-------66--x6------|

Bridge: (Distortion)


e|--------------------------------------|
B|--------------------------------------|
G|--------------------------------------|
D|-------------2------------22----------|
A|---2---------2--2---------22----------|
E|-----3-5-3-0------3-5-3-0-----x4------|

Chorus: (Distortion)


e|------------------------------------------------|
B|------------------------------------------------|
G|---9--------9-----9---------9+-------9----------|
D|---9-5-7-5--9-5-7-9---------9+-------9----------|
A|---7-5-7-5--7-5-7-7b--------7+-------7r---------|
E|-----3-5-3----3-5-----x4--------x16-------------|

The bass follows the guitar the whole time except on the Bridge (Clean)

This song is pretty sick to play when just messing around. If you see any screw ups or
something wrong, email me the corrections.
enjoi…

To play the this songs, including I Had Music in My Heart, but Now My Heart Is Broken by Showbread by ukulele, the most important basic ukulele chords to learn are C chord, D chord, G chord, and Em chord.
These set you up to play a a lot of songs, and each of them is easy to learn.

If you are looking for Until We Meet Again ukulele chords, you have come to the best site.
You can play versatile instrument Until We Meet Again using ukulele or guitar.
This song by Showbread can also be played by that instruments.
=

Until We Meet Again chords has rhythm and included in The Fear of God (2009) album.
You can also get another musical genres, including jazz ukulele chords, country music ukulele chords, pop ukulele chords, world music ukulele chords, and rock ukulele chords here.

Until We Meet Again by Showbread Ukulele Chords

Hey
First time chucking something up on here. Really cool song, just had to learn it.
Comments appreciated.

My dearest friend, if I sing you this song, will you hear it from up in heaven?
Im still down here in this ugly place, but up theres where Im heading
When they tell you Im coming, please wait for me in front of the house that Ill live in
And when Jesus walks me up to the door, I can finally see you again

Its true that my heart was broken in two on the day I said goodbye to you
And I carry an ache inside of my chest until Jesus makes everything new

Those that we loved that left before us must have been thrilled beyond words
when you ran through the gates and into the kingdom and up to the feet of my Lord
Once sick and frail, once weak and pale, now made perfect and new
No more aching and crying, or breaking and dying, finally home in the arms of who loves you

When you run and you play in the light of the Son, hold me in your heart and mind
I Dont know how and I dont know when, but Im leaving this cold place behind
How my heart aches to think of the day when my faith shall finally be sight
When the crowds will part and cheer as I come, as I walk through toward the light

And my father, my love, Jesus, my king, in His glory, seated on His throne
Hell take me in His arms as the crowds cheer and sing and say “Well done child, welcome home”

And Hell walk me to the house that He built with the fathers love and the carpenters touch
And youll run to me and Ill hold you again, for my friend, I have missed you so much

To play the this songs, including Until We Meet Again by Showbread by ukulele, the most important basic ukulele chords to learn are C chord, D chord, G chord, and Em chord.
These set you up to play a ton of songs, and each of them is easy to learn.

If you are searching for Hydra ukulele chords, you already visit to the best site.
You can play versatile instrument Hydra using ukulele or guitar.
This song by Showbread can also be played by that instruments.
=

Hydra chords has rhythm and included in Who Can Know It? (2010) album.
You can also get another musical genres, including jazz ukulele chords, country music ukulele chords, pop ukulele chords, world music ukulele chords, and rock ukulele chords here.

Hydra by Showbread Ukulele Chords


“Hydra” from “Who Can Know It?”
Tabbed By: Scott C.

Standard tuning

0:00 Intro 2x
Decisions are a vacuum…

e|——0—–0—-0—–3——1————————————|
B|——1—–0—-0—–3——2————————————|
G|——0—–0—-4—–0——1————————————|
D|—-2——2—-4—–0——0————————————-|
A|–3——2—–2—–2——0————————————–|
E|——————————————————————-|

e|——0—–3——————————————————|
B|——1—–3——————————————————|
G|——0—–0——7———————————————–|
D|—-2——0——-7——-2—————————————|
A|–3——2———5——-2—————————————|
E|—————————0—————————————|

C G D5 12x E 4x

0:36 2x, 1:39, 2:40 2x Chords >Riff ARiff BRiff CRiff ARiff BRiff CRiff ARiff B
3:42 (bass only)

Not perfect, but close. Go to showbread.net, download the multi-track files from the
songs and listen to just the guitars to fine tune this as needed.

Thanks.

To play the most songs, including Hydra by Showbread by ukulele, the most crucial basic ukulele chords to learn are C chord, D chord, G chord, and Em chord.
These set you up to play a many of songs, and each of them is easy to master.

If you are looking for Naked Lunch ukulele chords, you have come to the right place.
You can play versatile instrument Naked Lunch using ukulele or guitar.
This song by Showbread can also be played by that instruments.
=

Naked Lunch chords has rhythm and included in Age of Reptiles (2006) album.
You can also get other musical style, including jazz ukulele chords, country music ukulele chords, pop ukulele chords, world music ukulele chords, and rock ukulele chords here.

Naked Lunch by Showbread Ukulele Chords


This an accurate (at least I`m pretty sure) tab for the song Naked Lunch,
off the Age of Reptiles album.

EADGBE tuning

Intro/Verse:


e------------------------------------
b------------------------------------
g------------------------------------
d--------------------9999-9-9-9999-9-
a--9999-9-9-9999-9-9-7777-7-7-7777-7-
e--7777-7-7-7777-7-7-7777-7-7-7777-7-

continue repeating this part. Right after the bass comes in…


e--------------------------------------
b--------------------------------------
g--------------------------------------
d--------------------7777-7-7----------
a--9999-9-9999-9999--5555-5-5-7777-7-7-
e--7777-7-7777-7777-----------5555-5-5-

Then return to the original riff.

Chorus:
F#5 E5 (low E…022xxx)
B5 D5 E5 (high E…x799xx)

Here is the riff that Matt plays right after the chorus:


e------------------------------------
b------------------------------------
g------------------------------------
d---------4-2-0--------2-0-----------
a--22-0-2-------22-0-2-----4-22-0-2--
e------------------------------------

The bass plays alone for most of the verse, then the guitar comes in later
and continues the verse riff back into the chorus. After the chorus is the
solo. I don`t have a guitar with me right now so I can`t tab that out, but
there is another tab out there for it. Not sure of where it is, but you can
Google “showbread naked lunch solo tab” and you should find in one of the
first results.

After the solo, finish the song with the chorus and repeat twice.

Ratings and comments are welcome!

To play the this songs, including Naked Lunch by Showbread by ukulele, the most crucial basic ukulele chords to learn are C chord, D chord, G chord, and Em chord.
These set you up to play a many of songs, and each of them is easy to learn.

If you are looking for Hydra ukulele chords, you have visit to the best site.
You can play versatile instrument Hydra using ukulele or guitar.
This song by Showbread can also be played by that instruments.
=

Hydra chords has rhythm and included in Who Can Know It? (2010) album.
You can also find another musical genres, including jazz ukulele chords, country music ukulele chords, pop ukulele chords, world music ukulele chords, and rock ukulele chords here.

Hydra by Showbread Ukulele Chords


“Hydra” from “Who Can Know It?”
Tabbed By: Scott C.

Standard tuning

0:00 Intro 2x
Decisions are a vacuum…

e|——0—–0—-0—–3——1————————————|
B|——1—–0—-0—–3——2————————————|
G|——0—–0—-4—–0——1————————————|
D|—-2——2—-4—–0——0————————————-|
A|–3——2—–2—–2——0————————————–|
E|——————————————————————-|

e|——0—–3——————————————————|
B|——1—–3——————————————————|
G|——0—–0——7———————————————–|
D|—-2——0——-7——-2—————————————|
A|–3——2———5——-2—————————————|
E|—————————0—————————————|

C G D5 12x E 4x

0:36 2x, 1:39, 2:40 2x Chords >Riff ARiff BRiff CRiff ARiff BRiff CRiff ARiff B
3:42 (bass only)

Not perfect, but close. Go to showbread.net, download the multi-track files from the
songs and listen to just the guitars to fine tune this as needed.

Thanks.

To play the most songs, including Hydra by Showbread by ukulele, the most crucial basic ukulele chords to learn are C chord, D chord, G chord, and Em chord.
These set you up to play a ton of songs, and each of them is easy to master.

If you are looking for Sing Me to Sleep ukulele chords, you’ve visit to the right site.
You can play versatile instrument Sing Me to Sleep using ukulele or guitar.
This song by Showbread can also be played by that instruments.
=

Sing Me to Sleep chords has rhythm and included in Age of Reptiles (2006) album.
You can also get another musical genres, including jazz ukulele chords, country music ukulele chords, pop ukulele chords, world music ukulele chords, and rock ukulele chords here.

Sing Me to Sleep by Showbread Ukulele Chords

It’s pretty much just G, Em, C and D over and over again, but I wrote out the whole song
Sorry if the lyrics are wrong or something like that.

( Tab from: http://www.guitartabs.cc/tabs/s/showbread/sing_me_to_sleep_crd.html )
Something keeps me awake
Something outside is stirring
Through the dark and over the grass
The rabbits and snakes are concurring
They sing in the soil and bones rattle loud
They cry out as this they do see
Someone in those walls is suffering proud
For you are worth every ache within me
I don’t hear music, don’t hear anything
I see dirt I see cement
What a troubled world it is when
You’re outside arm’s length
It pulls out its teeth in dry irreverence
Come and find me on this floor
I’m only a half truth betold
Take away all the distance and say
“My beloved now I’m here and now you are whole”
If I turn to see your eyes in the dark
I will know the blue in an instant
Never have they gone so far
Or never has your face been distant
My life I will give you like a verse and a ring
I will be your only one
And what you ask of me will be yours until all is said and done
Your heart’s a song that I hear Jesus sing
It comes over oceans to me
And the notes spell out messages in vibrant streams
And what’s written you show only me
But if you can’t close up all the gaps tonight
Put me to bed in your ways
You see right through everything I am
For you my insides are displayed
Sing me to sleep my beautiful one
I will love only you for all time
Sing me to sleep my only one
With promises that you are all mine
Be still my heart, I hear your back cracking
It sounds like music to me
I see your face and I can hardly breath
It looks just like a song to me

To play the this songs, including Sing Me to Sleep by Showbread by ukulele, the most crucial basic ukulele chords to learn are C chord, D chord, G chord, and Em chord.
These set you up to play a ton of songs, and each of them is easy to learn.