If you are looking for Missing Pages ukulele chords, you have come to the best site.
You can play versatile instrument Missing Pages using ukulele or guitar.
This song by Seventh Day Slumber can also be played by that instruments.
=

Missing Pages chords has rhythm and included in Other Songs album.
You can also get other musical genres, including jazz ukulele chords, country music ukulele chords, pop ukulele chords, world music ukulele chords, and rock ukulele chords here.

Missing Pages by Seventh Day Slumber Ukulele Chords


Missing Pages Lyrics
Album: Finally Awake

Intro/Verse

e——————–l——————–l
B—–0—–0—0—-l—–0—–0—0—-l
G——-0—–0—0–l——-0—–0—0–l
D———2———-l———2———-l x3
A—0—————-l—3—————-l
E——————–l——————–l
el——————–l—————–0-l
Bl—–0—–0—0—-l—–0—–0—3—l
Gl——-0—–0—0–l——-0———–l
Dl—2—–2———-l—2—–2———l
Al——————–l——————-l
El——————–l——————-l

On the outside all we see is clay
That hides the perfect light
But no one really knows the pain inside

I understand how much it hurts
To be the one who?s never seen
The missing pages in a magazine

Chorus
No one knows you anymore
You?re lost inside the walls you?ve built
No one knows you anymore
A prison deep within your soul
There is One who sees it all
He?ll give you life you?ve never dreamed
He can see the pain underneath your skin

Verse
It?s hard to see you fading
Nothing that I do can bring you back
I pray to God that you don?t fade away
Your addiction is a symptom of a lost and dying soul
Without Jesus there?s no hope at all

Repeat Chorus

Bridge
There?s so much more this is not the end
It?s all in your hands don?t throw it away
A beautiful life with so much to give
The image of God underneath your skin

Repeat Intro
Repeat Chorus

Outro

e——————–l——————–l
B—–0—–0—0—-l—–0—–0—0—-l
G——-0—–0—0–l——-0—–0—0–l
D———2———-l———2———-l x3
A—0—————-l—3—————-l
E——————–l——————–l
el——————–l—————–0-l
Bl—–0—–0—0—-l—–0—–0—3—l
Gl——-0—–0—0–l——-0———–l
Dl—2—–2———-l—2—–2———l
Al——————–l——————-l
El——————–l——————-l

The beauty of God underneath your skin (3x)

COMMENTS AND CORRECTIONS ARE WELCOME, THANK YOU!
crispaker.kosa dimpoy69

To play the this songs, including Missing Pages by Seventh Day Slumber by ukulele, the most important basic ukulele chords to learn are C chord, D chord, G chord, and Em chord.
These set you up to play a many of songs, and each of them is easy to learn.

If you are searching for When the Children Cry ukulele chords, you already come to the best place.
You can play versatile instrument When the Children Cry using ukulele or guitar.
This song by Seventh Day Slumber can also be played by that instruments.
=

When the Children Cry chords has rhythm and included in Picking Up the Pieces (2003) album.
You can also get other musical style, including jazz ukulele chords, country music ukulele chords, pop ukulele chords, world music ukulele chords, and rock ukulele chords here.

When the Children Cry by Seventh Day Slumber Ukulele Chords


Drop D Tuning (Acoustic Guitar)

NOTE: I did not do this! The credit for this tab all goes to my guitar teacher in Ohio.

Intro:


E ---------------- -------0----- ------------ ------------ -----1---- ---------- ----------
B ---------------- ------1-1---- ------5/6--- ------------ ------1--- -----5/6-- ----------
G -----------5---- -----2---2--- ------x/x--- ----5----5-- --3----3-- -----x/x-- ----5-----
D --------5----5-- ------------- ------2/3--- ---5----5--- ---3----3- -----2/3-- ---5-5----
A -------3-3--3--- --0---------- ----0------- --3---/7---- -1-------- ----0----- --3---3---
E ------3--------- ------------- -0-0-------- ------------ ---------- -0-0------ -3--------


E ------------ -----------8-
B ------------ -----------8-
G ---5-----5-- -------9-----
D --5-----5--- -----10-10---
A -3----/7---- -------------
E ------------ --10---------

Verse:


E ---------- -----0---- ---------- --------- -----1--- --------- -------- -----------------
B ---------- ----1-1--- -----5/6-- -----3--- ------1-- -----5/6- -------- -----------------
G -----5---- ---2---2-- -----x/x-- ----5-5-- ---3---3- -----x/x- ----5--- ---5----5--------
D ---5---5-- ---------- -----2/3-- ---5---5- --3------ -----2/3- ---5-5-- --5----5---------
A --3-3-3--- -0-------- ----0----- --3------ -1------- ----0---- --3---3- -3---/7----------
E -3-------- ---------- -0-0------ --------- --------- -0-0----- -3------ -----------------


E --------- -----0--- ---------- ---------- ----1--- --------- -------- ------------------
B --------- ----1-1-- -----5/6-- ---------- -----1-- -----5/6- -------- ------------------
G -----5--- ---2---2- -----x/x-- ---5----5- ---3--3- -----x/x- ----5--- ---5----5---------
D ---5---5- --------- -----2/3-- --5----5-- --3----- -----2/3- ---5-5-- --5----5----------
A --3-3-3-- -0------- ----0----- -3---/7--- -1------ ----0---- --3---3- -3---/7-----------
E -3------- --------- -0-0------ ---------- -------- -0-0----- -3------ ------------------

Pre-Chorus:


E -1---1-1-1-1-1-1-- -3---3-3--3-3-3-- --------- --0--0--- -1---1-1-1-1-1-1- --------------
B -1---1-1-1-1-1-1-- -3---3-3--3-3-3-- -----5/6- ---1--1-- -1---1-1-1-1-1-1- -----5/6------
G -3---3-3-3-3-3-3-- -5---5-5--5-5-5-- -----x/x- ----2--2- -3---3-3-3-3-3-3- -----x/x------
D -3---3-3-3-3-3-3-- -5---5-5--5-5-5-- -----2/3- --------- -3---3-3-3-3-3-3- -----2/3------
A -1---1-1-1-1-1-1-- -3---3-3--3-3-3-- ----0---- -0------- -1---1-1-1-1-1-1- ----0---------
E ------------------ ----------------- -0-0----- --------- ----------------- -0-0----------


E -1--1-1--1-1- ----0----
B -1--1-1--1-1- ----1----
G -2--2-2--2-2- ----0----
D -3--3-3--3-3- ----2----
A -x--x-x--x-x- ----3----
E -3--3-3--3-3- ---------

That’s all I have for now but I’ll change it when I get more.

To play the most songs, including When the Children Cry by Seventh Day Slumber by ukulele, the most important basic ukulele chords to learn are C chord, D chord, G chord, and Em chord.
These set you up to play a ton of songs, and each of them is easy to master.

If you are searching for I Know ukulele chords, you have come to the best place.
You can play versatile instrument I Know using ukulele or guitar.
This song by Seventh Day Slumber can also be played by that instruments.
=

I Know chords has rhythm and included in Picking Up the Pieces (2003) album.
You can also get other musical style, including jazz ukulele chords, country music ukulele chords, pop ukulele chords, world music ukulele chords, and rock ukulele chords here.

I Know by Seventh Day Slumber Ukulele Chords

Intro-Em,D,C,D
– (and same through the whole song)

Verse 1.
I wonder what could be so bad,that it makes you want to die.
I wonder what could be so tragic,makes you want to take your life.
You have your Savior on the cross,while you sit on the throne.
Put your self up on that cross,and put your Savior on the throne.

Chorus-
I know,it’s hard to take what’s happening.
And I know,life is tough sometimes.
I know,it seems like there’s no hope for you.
But,I know your life,is worth more than you can give.

Verse 2-
It’s hard to see beyond your pain,when you feel so dead inside.

It’s hard to see what you’ve been given,it’s hard to find the hope in life.

Repeat chorus.

To play the this songs, including I Know by Seventh Day Slumber by ukulele, the most crucial basic ukulele chords to learn are C chord, D chord, G chord, and Em chord.
These set you up to play a many of songs, and each of them is easy to master.

If you are searching for On My Way Home ukulele chords, you have come to the right place.
You can play versatile instrument On My Way Home using ukulele or guitar.
This song by Seventh Day Slumber can also be played by that instruments.
=

On My Way Home chords has rhythm and included in Other Songs album.
You can also get another musical genres, including jazz ukulele chords, country music ukulele chords, pop ukulele chords, world music ukulele chords, and rock ukulele chords here.

On My Way Home by Seventh Day Slumber Ukulele Chords

Capo 1st fret

Gave this a try by ear, since there’s no chords anywhere for this. Feel free to
fix it, it doesn’t sound too bad. Rates and comments are appreciated. D

Intro – Cadd9 G (strum freely) Am Em G (whole thing x2)

Missing you like crazy
I feel a million miles away
A part of me is empty
That no one could replace

So I?ll run to you
Despite the shame
I’ll leave it all behind

On my way home
On my way home
I’m running back to you
On my way home
On my way home
I’m running back to you

How could you ever love me
When I didn’t love myself
When my brokenness consumed me
And everyone just walked away

You took me by the hand
I’m nothing without you

On my way home
On my way home
I’m running back to you
On my way home
On my way home
I’m running back to you

And all those years
Without you here
A life with so much pain
And on my own
I?ve tried to change
I’m simply lost without you

I’m tearing down the walls
G (stop)
The walls that kept me in for so long

I’m tearing down the walls

On my way home
On my way home
I’m running back to you
On my way home
On my way home
I’m running back to you

On my way home
On my way home
I’m running back to you
On my way home
On my way home
I’m running back to you

Outro – Am Em G

To play the most songs, including On My Way Home by Seventh Day Slumber by ukulele, the most crucial basic ukulele chords to learn are C chord, D chord, G chord, and Em chord.
These set you up to play a many of songs, and each of them is easy to learn.