If you are looking for Super nova ukulele chords, you already come to the best place.
You can play versatile instrument Super nova using ukulele or guitar.
This song by Rocksteddy can also be played by that instruments.
=

Super nova chords has rhythm and included in album.
You can also find other musical genres, including jazz ukulele chords, country music ukulele chords, pop ukulele chords, world music ukulele chords, and rock ukulele chords here.

Super nova by Rocksteddy Ukulele Chords

SUPER NOVA

Song Title : Super Nova
Artist : Rocksteddy

INTRO:
Kayo na bahala sa Lyrics at timing..

Super Nova.. Lalakad na….


e|------------------------------------------|
B|------------------------------------------|
G|------------------------------------------|
D|------------------------------------------|
A|------------------------------------------|
E|------------------------------------------|


e|--------------------------------------|
B|--------------------------------------|
G|--------------------------------------|
D|---9---9---9---9---5---5----7---7-----|
A|---9---9---9---9---5---5----7---7----|
E|---7---7---7---7---3---3----5---5-----|

Repeat


e|------------------------------------- -----| 2x
B|---------------------------------------------| /
G|---------------------------------------------|
D|---9---9---9---9---5--------7----------------|
A|---9---9---9---9---5--------7----------------|
E|---7---7---7---7---3--------5----------------|

VERSE:

PM PM PM PM PM PM PM PM PM


e|-----------------------------------------------------------|
B|-----------3------------3-----------3-----------3-----------|
G|----4--4------4------4-----4-----4-----4-----4-----4--------|
D|------------------------------------------------------------| Repeat
A|------------------------------------------------------------| 2x
E|------------------------------------------------------------| /

PM PM PM G A /[/]


e|------------------------------------------------------| /
B|-----3------------3b~---------------------------------| /
G|--4-----4------4--------------------------------------| /
D|-------------------------5-----------7----------------| /
A|-------------------------5-----------7----------------|
E|-------------------------3-----------5----------------|

PRE-CHORUS:


e|-----------------------------------------------------|
B|-----------------------------------------------------|
G|-----------------------------------------------------|
D|--7------------6-----------4----------5------7-------|Repeat
A|--5------------4-----------2----------5------7-------| 4x
E|--------------------------------------3------5-------|

Kung Pwede lang Naman…. ohhh..ohhh

CHORUS:


e|-----------------------------------------------------|
B|-----------------------------------------------------|
G|-----------------------------------------------------|
D|--7------------6-----------4----------5------7-------|Repeat
A|--5------------4-----------2----------5------7-------| 4x
E|--------------------------------------3------5-------|

Sa Super…. Nova…. Liches……..


REPEAT:------------

INTRO :
VERSE :
PRE-CHORUS :
CHORUS :

SOLO:


e|---10b---------------------------------------------------|
B|--------12--10-------------------------------------------|
G|----------------11--11br--9--7~-------------------7~---|
D|----------------------------------------9--7--9~----7~---|
A|---------------------------------------------------------|
E|---------------------------------------------------------|


e|-------------------------------------|
B|-------------------------------------|
G|----------------9b--9b--11p7p5-------|
D|-9--7--9~----------------------9~----|
A|-------------------------------------|
E|-------------------------------------|


e|---10b---------------------------------------------------|
B|--------12--10-------------------------------------------|
G|----------------11--11br--9--7~-------------------7~---|
D|----------------------------------------9--7--9~----7~---|
A|---------------------------------------------------------|
E|---------------------------------------------------------|


e|--------------------------------------|
B|--------------------------------------|
G|--------------------------------------|
D|-9--7--9~-----------------------------|
A|----------------7br--7br--------------|
E|--------------------------7~~---------|


e|-----10-------10---------------------10-------10-----------------|
B|-12--10-----------12--10~--------12--10-----------12--10~--------|
G|-----------------------------------------------------------------|
D|-----------------------------------------------------------------|
A|-----------------------------------------------------------------|
E|-----------------------------------------------------------------|


e|-----10-------10-------------------10---12b--12b---14p12p10-----|
B|-12--10-----------12--10~------12--------------------------12~--|
G|----------------------------------------------------------------|
D|----------------------------------------------------------------|
A|----------------------------------------------------------------|
E|----------------------------------------------------------------|


e|-----10-------10---------------------10-------10-----------------|
B|-12--10-----------12--10~--------12--10-----------12--10~--------|
G|-----------------------------------------------------------------|
D|-----------------------------------------------------------------|
A|-----------------------------------------------------------------|
E|-----------------------------------------------------------------|


e|-----10-----------10---------10--10h12h14p12p10-10h12h14p12p10-|
B|-12--10-------12--10-----12------------------------------------|
G|---------------------------------------------------------------|
D|---------------------------------------------------------------|
A|---------------------------------------------------------------|
E|---------------------------------------------------------------|


e|-----------------------------------------------|
B|-14p12p10--------------------------------------|
G|---------14p12p11-11h12p11---------------------|
D|---------------------------16p14p12~~~---------|
A|-----------------------------------------------|
E|-----------------------------------------------|

PM PM PM PM NH


e|------------------------------------------------------------------|
B|------------------------------------------------------------------|
G|--4/7~--7-7--6---------7--6---------7~---4Vd-----|
D|------------------------------------------------------------------|
A|-----------------5--5---------5--5--------------------------------|
E|------------------------------------------------------------------|


e|-----------------------/19~~~p17--19~---21--22br22--21--19~~~--|
B|-------15------15-------------------------------------------------------|
G|-------------------14---------------------------------------------------|
D|--/12------12-----------------------------------------------------------|
A|------------------------------------------------------------------------|
E|------------------------------------------------------------------------|


e|-----------------------------------------------------------------------|
B|-----------------------------------------------------------------------|
G|--------6--7--9~~----11--12~~-----11h12/-14--11------------------------|
D|------------------------------------------------12~----12--14----------|
A|--------------------------------------------------------------12~~-----|
E|-----------------------------------------------------------------------|


e|--------------------------------|
B|--------------------------------|
G|--------------------------------|
D|---------9/119-----------------|
A|--10--9---------10~~~-----------|
E|--------------------------------|

t T


e|------------------------------------12h14h15p14-17-14p12-------|
B|---------------------------12-14-15----------------------15p14-|
G|-----------14p11--11-12-14-------------------------------------|
D|--------14-----------------------------------------------------|
A|-----14--------------------------------------------------------|
E|--12-----------------------------------------------------------|

T T T T


e|-12h14-17-14p12-19-14p12-------12h14-19-14p12-21-14p12------|
B|------------------------15p14-------------------------15p14-|
G|------------------------------------------------------------|
D|------------------------------------------------------------|
A|------------------------------------------------------------|
E|------------------------------------------------------------|

T T


e|-12h14-21-14p12-22-14p12---------------14-15-17/-19~---22~~~~------|
B|-------------------------15-p14---14-17----------------------------|
G|-------------------------------------------------------------------|
D|-------------------------------------------------------------------|
A|-------------------------------------------------------------------|
E|-------------------------------------------------------------------|
e|-----------------------------------------------------|
B|-----------------------------------------------------|
G|-----------------------------------------------------|
D|-----------------------------------------------------|
A|-----------------------------------------------------|
E|-----------------------------------------------------|

Gusto mo bang matulog dito wala akong katabi………

CHORUS:


e|-----------------------------------------------------|
B|-----------------------------------------------------|
G|-----------------------------------------------------| Repeat
D|--7------------6-----------4----------5------7-------|many times
A|--5------------4-----------2----------5------7-------|
E|--------------------------------------3------5-------|

Sa Super…. Nova…. Liches……..



e|-----------------------------------------------------|
B|-----------------------------------------------------|
G|----7~~----------------------------------------------|
D|----7~~----------------------------------------------|
A|----5~~----------------------------------------------|
E|-----------------------------------------------------|

Tablature Legend:

h — hammer on
p — pull off
b — bend
r — bend release
— bend hold or maintain
^ — bend a little, or increase the bend slightly
— quick (ring, bend, harmonics etc..)
/, — slide (toward, forward)
~ — let ring
x — Muted string then pluck it
AH — Artificial Harmonic
TP — Tap Harmonic
PH — Pitch Harmonic
NH — Natural Harmonic
PM — Palm Muted
T — Tap
t — Use your picking hand to create pull-off’s and hammer-on’s
Tr — Trill
Vd — Vibrato Arm Down, Whammy or Tremolo Bar(ano yun mayron ka)
Vu — Vibrato Arm Up
Vr — Vibrato Arm Ring

: Calinan, Davao City, Phillipines…
W3FT:DOTA name : IniTiaL D or KANAAAAA sequel duterte branch.. Hehe
Sana magustuhan nyo gawa ko… hehe.. NjOY….

To play the most songs, including Super nova by Rocksteddy by ukulele, the most important basic ukulele chords to learn are C chord, D chord, G chord, and Em chord.
These set you up to play a many of songs, and each of them is easy to master.