If you are looking for Head Creeps ukulele chords, you already come to the right site.
You can play versatile instrument Head Creeps using ukulele or guitar.
This song by Alice in Chains can also be played by that instruments.
=

Head Creeps chords has rhythm and included in Alice in Chains (1995) album.
You can also get another musical genres, including jazz ukulele chords, country music ukulele chords, pop ukulele chords, world music ukulele chords, and rock ukulele chords here.

Head Creeps by Alice in Chains Ukulele Chords


Date: Fri, 24 Nov 1995 12:39:34 -0500
Subject: TAB: Head Creeps by Alice In Chains
Head Creeps
by Alice In Chains
from the album Alice In Chains
0D


--------------------------------------------------------------------

This TAB transcription was created using TAB MASTER version 1.0
by Ofir Zwebner, e-mail: ofirz1@ccsg.tau.ac.il
snail-mail: Ehoud 10, Tel Aviv, 69936, Israel


--------------------------------------------------------------------

0D
Okey dokey this is a really cool song, thank god it’s easy to transcribe
I didn’t put any timing into this, and there’s a lot of times where the
open E power chord (022xxx) repeats that I didn’t put in, so figure it
out yourself. If you can’t figure it out, you shouldn’t be playing guita
r.
-the biggest third of FEEDBACK
0D
very beginning lead intro rhythm intro riff
verse riff x3


e:----------------- ----------- --------------------------- -----
B:----------------- ----------- ------------------------- -----
G:----------------- ----------- --------------------------- -----
D:2--------2------- ----------- 2------------------------ 2---3
A:2--------2------- 10--9--/14 -2------------------------- 2---3
E:0--------0------- ----------- -0---5b(6)b(5)b(6)b(5)b(6)- 0---1

P.M. during intro only …..
0D
prechorus riff prechorus-chorus
transition


e:--------------------------------- ------------------ -----------------

[—]


B:-------------------------------- ----------------- -----------------

[—]


G:--------------------------------- ------------------ -----------------

4~-


D:2---------7b(8)7b(8)7b(8)-b(8)7- 2---------------- -10--9--5--4--2--

[2–]


A:-2---5-7-5----------------------6 2---5-7-5--------- -10--9--5--4--2--

[—]


E:-0------------------------------- 0---------6-6-6/7- -8---7--3--2--0--

[—]0D
chorus riff that squeaky outro pa
rt
x a bunch


e: ------------------ --------------------------- -10----10----11----12-

[—]


B: ----------------- -------------------------- ---11----11----11----

11


G: ---------------4~- ------------------------4~- ----------------------

[—]


D: 2--8--8/9--2--2-- -2------5-----4---3--2--2- ---------------------


A: -2--8--8/9--2----- -2----5-----4--------2----- ----------------------

[—]


E: -0--6--6/7--0----- -0--3-----2-----1----0----- ----------------------

[—]0D
______________________________________________
transcribed by:
feedbakc@aol.com
__________________
/ /__ /__
/____/____/________ / __
/ / / /
/ ___ /
/ __________________/ __/
______________________________________________
0D
0D
–PART.BOUNDARY.0.21256.emout04.mail.aol.com.817234772–

To play the this songs, including Head Creeps by Alice in Chains by ukulele, the most crucial basic ukulele chords to learn are C chord, D chord, G chord, and Em chord.
These set you up to play a many of songs, and each of them is easy to learn.

If you are looking for Last of My Kind ukulele chords, you already come to the best site.
You can play versatile instrument Last of My Kind using ukulele or guitar.
This song by Alice in Chains can also be played by that instruments.
=

Last of My Kind chords has rhythm and included in Black Gives Way to Blue (2009) album.
You can also get another musical genres, including jazz ukulele chords, country music ukulele chords, pop ukulele chords, world music ukulele chords, and rock ukulele chords here.

Last of My Kind by Alice in Chains Ukulele Chords


This is the third song off of thier new album ‘Black Gives Way to Blue’ its a half
step down with a drop D (Db).

intro


Eb-------------------------------------------------------------------|
Bb-------------------------------------------------------------------|
Gb-------------------------------------------------------------------|
Db-------------------------------------------------------------------|
Ab-----4---4s5---5s7---7---5---4--------4---4s5---5s7---7---5---4----|
Db-2s4---4-----5-----7---5---5---4--2s4---4-----5-----7---5---4---4--|
Eb-------------------------------------------------------------------|
Bb-------------------------------------------------------------------|
Gb-------------------------------------------------------------------|
Db-------------------------------------------------------------------|
Ab-----4---4s5---5s7---7---5---4--------4---4s5---5s7---7---8---4----|
Db-2s4---4-----5-----7---5---5---4--2s4---4-----5-----7---8---4------|

verse(2x)


Eb-------------------------------------------------------------------|
Bb-------------------------------------------------------------------|
Gb-------------------------------------------------------------------|
Db-------------------------------------------------------------------|
Ab-----4---4s5---5s7---7---5---4--------4---4s5---5s7---7---5---4----|
Db-2s4---4-----5-----7---5---5---4--2s4---4-----5-----7---5---4---4--|
Eb-------------------------------------------------------------------|
Bb-------------------------------------------------------------------|
Gb-------------------------------------------------------------------|
Db-------------------------------------------------------------------|
Ab-----4---4s5---5s7---7---5---4--------4---4s5---5s7---7---8---4----|
Db-2s4---4-----5-----7---5---5---4--2s4---4-----5-----7---8---4------|

pre-chorus(4x)


Eb-----------------------------|
Bb-----------------------------|
Gb-----------------------------|
Db-5-7----7----7----7---7-8-5--|
Ab-5-7----7----7----7---7-8-5--|
Db-5h7-77-7-77-7-77-7-7-7-8-5--|

pm pm pm pm

Chorus(2x)


Eb---------------------------------|
Bb---------------------------------|
Gb---------------------------------|
Db-4------4------4------4---8765---|
Ab-2------2------2------2---8765---|
Db--222222-222222-222222-22s8765---|
-----------------------------------| [-pm-] [-pm-] [-pm-] pm

intro


Eb-------------------------------------------------------------------|
Bb-------------------------------------------------------------------|
Gb-------------------------------------------------------------------|
Db-------------------------------------------------------------------|
Ab-----4---4s5---5s7---7---5---4--------4---4s5---5s7---7---5---4----|
Db-2s4---4-----5-----7---5---5---4--2s4---4-----5-----7---5---4---4--|
Eb-------------------------------------------------------------------|
Bb-------------------------------------------------------------------|
Gb-------------------------------------------------------------------|
Db-------------------------------------------------------------------|
Ab-----4---4s5---5s7---7---5---4--------4---4s5---5s7---7---8---4----|
Db-2s4---4-----5-----7---5---5---4--2s4---4-----5-----7---8---4------|

verse(2x)


Eb-------------------------------------------------------------------|
Bb-------------------------------------------------------------------|
Gb-------------------------------------------------------------------|
Db-------------------------------------------------------------------|
Ab-----4---4s5---5s7---7---5---4--------4---4s5---5s7---7---5---4----|
Db-2s4---4-----5-----7---5---5---4--2s4---4-----5-----7---5---4---4--|
Eb-------------------------------------------------------------------|
Bb-------------------------------------------------------------------|
Gb-------------------------------------------------------------------|
Db-------------------------------------------------------------------|
Ab-----4---4s5---5s7---7---5---4--------4---4s5---5s7---7---8---4----|
Db-2s4---4-----5-----7---5---5---4--2s4---4-----5-----7---8---4------|

pre-chorus(4x)


Eb-----------------------------|
Bb-----------------------------|
Gb-----------------------------|
Db-5-7----7----7----7---7-8-5--|
Ab-5-7----7----7----7---7-8-5--|
Db-5h7-77-7-77-7-77-7-7-7-8-5--|

pm pm pm pm

Chorus(4x)


Eb---------------------------------|
Bb---------------------------------|
Gb---------------------------------|
Db-4------4------4------4---8765---|
Ab-2------2------2------2---8765---|
Db--222222-222222-222222-22s8765---|
-----------------------------------| [-pm-] [-pm-] [-pm-] pm

bridge(4x[the solo is played behind thins riff which comes in half way through])


Eb-----------------------------------------------------------------|
Gb-----------------------------------------------------------------|
Bb-----------------------------------------------------------------|
Db-2-0-2-3-2---0----5-3-2-0-2-3-2--2-0-2-3-2---0----7-3-2-0-2-3-2--|
Ab-2-0-2-3-2---0----5-3-2-0-2-3-2--2-0-2-3-2---0----7-3-2-0-2-3-2--|
Db-2-0-2h3-2---0(2)s5-3-2-0-2h3-2--2-0-2h3-2---0(2)s7-3-2-0-2h3-2--|

intro


Eb-------------------------------------------------------------------|
Bb-------------------------------------------------------------------|
Gb-------------------------------------------------------------------|
Db-------------------------------------------------------------------|
Ab-----4---4s5---5s7---7---5---4--------4---4s5---5s7---7---5---4----|
Db-2s4---4-----5-----7---5---5---4--2s4---4-----5-----7---5---4---4--|
Eb-------------------------------------------------------------------|
Bb-------------------------------------------------------------------|
Gb-------------------------------------------------------------------|
Db-------------------------------------------------------------------|
Ab-----4---4s5---5s7---7---5---4--------4---4s5---5s7---7---8---4----|
Db-2s4---4-----5-----7---5---5---4--2s4---4-----5-----7---8---4------|

Chorus(2x)


Eb---------------------------------|
Bb---------------------------------|
Gb---------------------------------|
Db-4------4------4------4---8765---|
Ab-2------2------2------2---8765---|
Db--222222-222222-222222-22s8765---|
-----------------------------------| [-pm-] [-pm-] [-pm-] pm

outro(Palm muted)


Db-----------------------------------|
Bb-----------------------------------|
Gb-----------------------------------|
Db--2-2-2-2-2-2-2-2-2-2-2-2-2-2-2-2--|
Ab--2-2-2-2-2-2-2-2-2-2-2-2-2-2-2-2--|
Db--2-2-2-2-2-2-2-2-2-2-2-2-2-2-2-2--|

there is also a lead that is played during the outro, but i havnt figured it out yet.

To play the this songs, including Last of My Kind by Alice in Chains by ukulele, the most crucial basic ukulele chords to learn are C chord, D chord, G chord, and Em chord.
These set you up to play a a lot of songs, and each of them is easy to master.

If you are searching for Black Gives Way to Blue ukulele chords, you have come to the right site.
You can play versatile instrument Black Gives Way to Blue using ukulele or guitar.
This song by Alice in Chains can also be played by that instruments.
=

Black Gives Way to Blue chords has rhythm and included in Black Gives Way to Blue (2009) album.
You can also find another musical genres, including jazz ukulele chords, country music ukulele chords, pop ukulele chords, world music ukulele chords, and rock ukulele chords here.

Black Gives Way to Blue by Alice in Chains Ukulele Chords


Song: Black Gives Way To Blue
Band: Alice In Chains
Album: Black Gives Way To Blue
Tuning: Half-Step Down
Tabbed by: J.Griff (artificial_inside@hotmail.com)
Comments: When I first heard that these guys were making a CD,
I was pretty shocked. I thought this CD wouldn’t sound the same
without Layne Staley, which is true, but this CD still has the
same Alice In Chains feel to it. This song really blew me away
and I have been listening to it ever since. From what I have
seen in a live video, this it what William DuVall plays in
the song.

If there’s any corrections that need to be made, let me know.

Thank you and please rate or comment.

Chords:

e|-0-| e|-0-| e|-0-| e|-0-| e|-0-|
B|-2-| B|-0-| B|-0-| B|-0-| B|-0-|
G|-3-| G|-4-| G|-2-| G|-2-| G|-6-|
D|-0-| D|-4-| D|-2-| D|-2-| D|-6-|
A|-0-| A|-2-| A|-0-| A|-1-| A|-4-|
E|—| E|—| E|—| E|—| E|—|

Intro:


I don’t wanna feel no more

It’s easier to keep falling
Imitations are pale
The emptiness of tomorrows
haunted by your ghost

Lay down black gives way to blue
Lay down I remember you


Fading out by design
Consciously avoiding changes
Curtains drawn now it’s done
Silencing all tomorrows,
forcing a good-bye

Lay down black gives way to blue
Lay down I’ll remember you

To play the most songs, including Black Gives Way to Blue by Alice in Chains by ukulele, the most important basic ukulele chords to learn are C chord, D chord, G chord, and Em chord.
These set you up to play a ton of songs, and each of them is easy to learn.

If you are searching for Got Me Wrong ukulele chords, you already visit to the best site.
You can play versatile instrument Got Me Wrong using ukulele or guitar.
This song by Alice in Chains can also be played by that instruments.
=

Got Me Wrong chords has rhythm and included in Other Songs album.
You can also get other musical style, including jazz ukulele chords, country music ukulele chords, pop ukulele chords, world music ukulele chords, and rock ukulele chords here.

Got Me Wrong by Alice in Chains Ukulele Chords


By Alice in Chains

Tabbed by: Ryan Jung

It’s a cool rhythm, but it’s difficult to express here, so I’m leaving it
up to you to listen to the song and get the rhythm down. I’m fairly sure this
is accurate. Hey, it sounds good when I play it, so it’s probably at least
close. I’m also fairly sure that they play as much of the song with bar chords
as is possible (everything but the E’s, I believe). That

said, have fun!

Verse One:

Yeah
It goes away.
All of this and more of no-thing in my life.
No
Color clay.
Indi-vidu-ali-ty not safe.

Half Chorus:

As of now I beg you got me wrong.
So unsure you run from something strong.

Verse Two:

I
Can’t let go.
Threadbare tapestry un-winding slow.
Feel
A tortured brain.
Show your belly like you want me to.

Chorus:

As of now I beg you got me wrong.
So unsure you run from something strooooooong.
I haven’t felt like this in so long.
Wroooooooong.
In a sense, too far gone from love.
That won’t last for-ever.
G# E F# G# E F# (Repeat this progression for awhile.)
Something’s gotta turn out right.

Verse Three:

You
Sugar taste.
Sweetness doesn’t of-ten touch my face.
Stay
If you please.
You may not be here when I leave.

Chorus again:

As of now I beg you got me wrong.
So unsure you run from something strooooooong.
I haven’t felt like this in so long.
Wroooooooong.
In a sense, too far gone from love.
That won’t last for-ever.
Something’s gotta turn out right.

Outro:


To play the this songs, including Got Me Wrong by Alice in Chains by ukulele, the most important basic ukulele chords to learn are C chord, D chord, G chord, and Em chord.
These set you up to play a many of songs, and each of them is easy to learn.

If you are looking for Nutshell ukulele chords, you have come to the best place.
You can play versatile instrument Nutshell using ukulele or guitar.
This song by Alice in Chains can also be played by that instruments.
=

Nutshell chords has rhythm and included in Jar of Flies / Facelift / Dirt (2001) album.
You can also get other musical style, including jazz ukulele chords, country music ukulele chords, pop ukulele chords, world music ukulele chords, and rock ukulele chords here.

Nutshell by Alice in Chains Ukulele Chords


Repost nr. 203…

“Nutshell” from the Alice in Chains album Jar of Flies
Tab transcription by Mark van ‘t Zet (tmvtzet@cs.vu.nl)

Remarks: A point above a note means: staccato (short). Really
excellent song, like the rest of the album.

INTRO RIFF – Acoustic guitar. Played through entire song.

———3——2—0—-0—-0—–0—–0———0—–0—0——–
–3—3–3—3–3—3—-3—-3–3–3—–3—3–3–3—–3—3–3–3–
–0—0–0—0–2—0—-0—-0–0–0—–0—0–0–0—–0—0–0–0–
–2—2–0—0–0—2—-2—-2–2–0h2—2—2–2–0h2—2—2–2–2–
–2——2———-3—-3———-3—–3———3—–3————
–0——3————————————————————-

. Em7

–0–0–0–0—-3–3———
–3–3–3–3—-3–3—3–3–
–0–0–0–0——-0—0–0–
–2–2–2–2——-2—2–2–
——————-2—2–2–
——————-0———

Variation (instead of 4th time riff above)

———3——2—0—-0—-0—–0———0—–0———0——–
–3—3–3—3–3—3—-3—-3–3–3–x–0—0—–3–x–0—0——–
–0—0–0—0–2—0—-0—-0–0–0–x–0—0—–0–x–0—0——–
–2—2–0—0–0—2—-2—-2–2–2–x——2—–2–x——2——–
–2——2———-3—-3———-3———3—–3———3——–
–0——3————————————————————-

. Em7

–0–0–0–0—-3–3———
–3–3–3–3—-3–3—3–3–
–0–0–0–0——-0—0–0–
–2–2–2–2——-2—2–2–
——————-2—2–2–
——————-0———

VERSE 1

We chase misprinted lies
We face the path of time
And yet I fight
And yet I fight
This battle all alone
No one to cry to
No place to call home

CHORUS – Electrical guitar, play twice

Oooh (4x)
( Tab from: http://www.guitartabs.cc/tabs/a/alice_in_chains/nutshell_tab_ver_2.html )

–12——————————————-
—–12—————————————-
——–12–11b12r11–9————————
————————-9(gradual bend)10^^^–
———————————————–
———————————————–
–10——————————————-
—–8—————————————–
——–7—7b8r7——————————
———————10–9^^^——————
———————————————–
———————————————–

VERSE 2

My gift of self is raped
My privacy is raked
And yet I find
And yet I find
Repeating in my head
If I can’t be my own
I’d feel better dead

OUTRO SOLO

———————————————————————–
———————————–12———————————-
—————————-9–11–12———————————-
—–9b10r9————————12———————————-
————-10–9b10r9———————————.————–
————————-10————-0–0–10h12–0–15–0–12^^^^–
———————————————————————–
———————————–12—–12—–12-(

To play the this songs, including Nutshell by Alice in Chains by ukulele, the most crucial basic ukulele chords to learn are C chord, D chord, G chord, and Em chord.
These set you up to play a many of songs, and each of them is easy to master.

If you are looking for All Secrets Known ukulele chords, you have visit to the right place.
You can play versatile instrument All Secrets Known using ukulele or guitar.
This song by Alice in Chains can also be played by that instruments.
=

All Secrets Known chords has rhythm and included in Black Gives Way to Blue (2009) album.
You can also find another musical genres, including jazz ukulele chords, country music ukulele chords, pop ukulele chords, world music ukulele chords, and rock ukulele chords here.

All Secrets Known by Alice in Chains Ukulele Chords


Intro
Repeat this section 3x then move on to the following below…


Eb--------------------------------------------------|
Bb--------------------------------------------------|
Gb--------------------------------------------------|
Db---4-5---4-5---4-5---4-5---5-7---5-7---5-7---5-7--|
Ab-5-----5-----5-----5-----5-----5-----5-----5------|
Db--------------------------------------------------|

. . . . . . . . . . . . . . . . . . . . . . . .
Palm Muted

Guitar 1


Eb------------------------------------------------------|
Bb------------------------------------------------------|
Gb----------------------------4-5----4-5----4-5----4-5--|
Db---7-8---7-8---7-8---7-8------------------------------|
Ab-5-----5-----5-----5------5------5------5------5------|
Db------------------------------------------------------|

. . . . . . . . . . . . . . . . . . . . . . . . . .
Palm Muted
Guitar 2


Eb------------------------------------------------------|
Bb-6-6-6-6-6-6-6-6-6-6-6-6--8-8-8-8-8-8-8-8-8-8-8-8-----|
Gb-5-5-5-5-5-5-5-5-5-5-5-5--7-7-7-7-7-7-7-7-7-7-7-7-----|
Db-3-3-3-3-3-3-3-3-3-3-3-3--5-5-5-5-5-5-5-5-5-5-5-5-----|
Ab-3-3-3-3-3-3-3-3-3-3-3-3--5-5-5-5-5-5-5-5-5-5-5-5-----|
Db-3-3-3-3-3-3-3-3-3-3-3-3--5-5-5-5-5-5-5-5-5-5-5-5-----|

Verse (4x)


Eb--------------------------------------------------|
Bb--------------------------------------------------|
Gb--------------------------------------------------|
Db---4-5---4-5---4-5---4-5---5-7---5-7---5-7---5-7--|
Ab-5-----5-----5-----5-----5-----5-----5-----5------|
Db--------------------------------------------------|

. . . . . . . . . . . . . . . . . . . . . . . .
Palm Muted
Hope,
a new beginning
time,
time to start living
like just before we…

Chorus
Chords


Eb-------------------------------------|
Bb--3-----------4--------6--------8----|
Gb--2-----------3--------5--------7----|
Db--0-----------1--------3--------5----|
Ab--0-----------1--------3--------5----|
Db--0-----------1--------3--------5----|

Died…
There’s no going back
to the place…
We started from

Verse (4x)


Eb--------------------------------------------------|
Bb--------------------------------------------------|
Gb--------------------------------------------------|
Db---4-5---4-5---4-5---4-5---5-7---5-7---5-7---5-7--|
Ab-5-----5-----5-----5-----5-----5-----5-----5------|
Db--------------------------------------------------|

. . . . . . . . . . . . . . . . . . . . . . . .
Palm Muted
Hurt,
fallin through fingers
Trust,
trust in the feeling
There’s something left…

Chorus
inside…
There’s no going back
to the place…
We started from
AAAAaaahhhhhhhAAAAHHHHH
All secrets known

Bridge
repeat this section 3x


Eb--------------------------------------------------------------|
Bb-------------------------------------------8------------------|
Gb-------------------------------------------7------------------|
Db-7----7----7----7-----------------7---7----5------------------|
Ab-7----7----7----7------------8-7--7---7----5-----------5-7-8--|
Db-7----7----7----7----/7-9-10------7---7----5---/7-9-10--------|
Eb------------------------------------------------|
Bb-------------------------------------------8----|
Gb-------------------------------------------7----|
Db-7----7----7----7-----------------7---7----5----|
Ab-7----7----7----7------------8-7--7---7----5----|
Db-7----7----7----7----/7-9-10------7---7----5----|

ring

Solo
this section is played twice before the solo


Eb--------------------------------------------------|
Bb--------------------------------------------------|
Gb--------------------------------------------------|
Db---4-5---4-5---4-5---4-5---5-7---5-7---5-7---5-7--|
Ab-5-----5-----5-----5-----5-----5-----5-----5------|
Db--------------------------------------------------|

. . . . . . . . . . . . . . . . . . . . . . . .
Palm Muted


Eb--12/18-17-15-14-15p14-15p14-15/17~--15-17^18-18v17-------------------------------16---------|
Bb---------------------------------------------------16-15/13--13-15-15~-----15^16----16v15p13~|
Gb---------------------------------------------------------------------------------------------|
Db---------------------------------------------------------------------------------------------|
Ab---------------------------------------------------------------------------------------------|
Db---------------------------------------------------------------------------------------------|

Verse (4x)


Eb--------------------------------------------------|
Bb--------------------------------------------------|
Gb--------------------------------------------------|
Db---4-5---4-5---4-5---4-5---5-7---5-7---5-7---5-7--|
Ab-5-----5-----5-----5-----5-----5-----5-----5------|
Db--------------------------------------------------|

. . . . . . . . . . . . . . . . . . . . . . . .
Palm Muted
Calm,
all wounds are healing
Strong,
truth is worth saving
I want to feel..

Alive…
There’s no going back
to the place…
We started from
AAAAaaahhhhhhhAAAAHHHHH
All secrets known
D(fades out)

To play the this songs, including All Secrets Known by Alice in Chains by ukulele, the most important basic ukulele chords to learn are C chord, D chord, G chord, and Em chord.
These set you up to play a a lot of songs, and each of them is easy to learn.

If you are searching for Again ukulele chords, you already visit to the best site.
You can play versatile instrument Again using ukulele or guitar.
This song by Alice in Chains can also be played by that instruments.
=

Again chords has rhythm and included in Alice in Chains (1995) album.
You can also get other musical style, including jazz ukulele chords, country music ukulele chords, pop ukulele chords, world music ukulele chords, and rock ukulele chords here.

Again by Alice in Chains Ukulele Chords


Date: Sun, 12 Jan 1997 07:49:30 -0800
From: RICHARD SHEEHAN
Subject: alice in chains : again.tab
Alice in chains – ” Again “


G --------------5----------------4
D 4-4-4-4-4-4-4-5--5-5-5-5-5-5-5-4
A 4-4-4-4-4-4-4----5-5-5-5-5-5-5-
E 2-2-2-2-2-2-2----3-3-3-3-3-3-3- Main riff/verse

p.m………… ………….


D 4-4-4-4-4-4---4-4-4-4-4-4-4
A 4-4-4-4-4-4---5-5-5-5-5-5-5 chorus
E 2-2-2-2-2-2---3-3-3-3-3-3-3

that’s where layne jerry keep moaning, to get the rythym just right
listen to the tape


G --5-- -----

D 5-5-5 7-8-8


A 5---5 7-8-8 pre " woo-hoo " part

[3—3] ^ ^[5-6-6]
in this middle part, he does a slide w/ harmonics, by i don’t know at
what frets, figure it out yourselfs


G --------5--

D 8-7-7-5-5-5


A 8-7-7-5---5
E 6-5-5-3---3

Hope this helped, i should have written this earlier cuz i knew it
for a while. Feedback, correction, or if u just want to talk about the
great AiC or another good band, e-mail me at jtull1@ix.netcom.com ( the
third 1 is a one, not an l like the other two )

To play the this songs, including Again by Alice in Chains by ukulele, the most crucial basic ukulele chords to learn are C chord, D chord, G chord, and Em chord.
These set you up to play a ton of songs, and each of them is easy to master.

If you are looking for Would? ukulele chords, you have come to the best site.
You can play versatile instrument Would? using ukulele or guitar.
This song by Alice in Chains can also be played by that instruments.
=

Would? chords has rhythm and included in Dirt (1992) album.
You can also find another musical genres, including jazz ukulele chords, country music ukulele chords, pop ukulele chords, world music ukulele chords, and rock ukulele chords here.

Would? by Alice in Chains Ukulele Chords

Album/Record label-Dirt(1992)/Sony

In the key of F#minor
Moderate Speed

Chords used in this song include:
F#m F#m(octaved) Bm G D7 G# E


e-2------------------2---3--2---4---0-------------------------------|
b-2------------------3---3--1---4---0-------------------------------|
G-2----6-------------4---0--2---5---1-------------------------------|
D-4----4-------------4---0--0---6---2-------------------------------|
A-4------------------2---2------6---2-------------------------------|
E-2----------------------3------4---0-------------------------------|

The bass starts out the song, the guitar comes in when you hear the ooohs from
layne and the riff, the opening riff , goes like this:


e------------------------------------------------------------------|
b-------------------------------5----------------------------------|
G-4h6~4h6~4-4~~~4h6~4h6-4-4~~~-4---4h6~4h6~4-4~~~4h6~4h6~4-4~~~----|
D-4--~4--~4-5~~~4--~4---4-5~~~5----4--~4--~4-5~~~4--~4--~4-5~~~--2-|
A---------------------------------------------------------------2--|
E--------------------------------------------------------------3---|

The verse riff on the other hand goes like this, the same, but at a lower octave:

Know me Broken by my Master Teach thee of child love here after


D-----------------------------------2-------------------------------------2-|
A-2h4~2h4~2-2~~~----2h3~2h3~2-2~~~-2--2h4~2h4~2-2~~~------2h4~2h4~2-2~~~-2--|
E-2--~2--~2-3~~~----2--~2--~2-3~~~3---2--~2--~2-3~~~------2--~2--~2-3~~~3---|

Into the flood again
Same old trip it was back then
So I made a big mistake
Try to see it once my way

go back to the opening riff and play it once, then move on to the second verse,
just like the first, different lyrics:

Drifting bodies Sole desertion Flying not yet quite the notion


D-----------------------------------2-------------------------------------2-|
A-2h4~2h4~2-2~~~----2h3~2h3~2-2~~~-2--2h4~2h4~2-2~~~------2h4~2h4~2-2~~~-2--|
E-2--~2--~2-3~~~----2--~2--~2-3~~~3---2--~2--~2-3~~~------2--~2--~2-3~~~3---|

Into the flood again
Same old trip it was back then
So I made a big mistake
Try to see it once my way

go back to the opener riff, then to the third chorus:

Into the flood again
Same old trip it was back then
So I made a big mistake
Try to see it once my way

now it’s on to the bridge and the outro:

Am I wrong? Have I run too far to get home?
Have I gone? Left you here alone.
Am I wrong? Have I run too far to get home?
Have I gone? Left you here alone.

If I would, could you?

That’s the “bomb track”, good tune, I play it out all the time acoustic and with
the band, get noticed get “chains”, alice in chains!

HvyFknMtl08

To play the this songs, including Would? by Alice in Chains by ukulele, the most crucial basic ukulele chords to learn are C chord, D chord, G chord, and Em chord.
These set you up to play a ton of songs, and each of them is easy to master.

If you are searching for I Stay Away ukulele chords, you’ve visit to the best place.
You can play versatile instrument I Stay Away using ukulele or guitar.
This song by Alice in Chains can also be played by that instruments.
=

I Stay Away chords has rhythm and included in Jar of Flies / Facelift / Dirt (2001) album.
You can also find other musical style, including jazz ukulele chords, country music ukulele chords, pop ukulele chords, world music ukulele chords, and rock ukulele chords here.

I Stay Away by Alice in Chains Ukulele Chords


Album : Jar Of Flies
Song : I Stay Away

Tuning : Written in Standard Flat. Eb Ab Db Gb Bb Eb, but you can play it standard just fine.

First off, I have taken bits and pieces from other tabs, this is not my work,
except for fixing a few things i noticed. The second guitar is only included
for the solo. For a more complete version, get the power tab one. This just
has all parts of the song for people who want the online version.

Everything played clean except solo.

Intro


e]-0h2-2-2-0---3--------------------------------|
B]-3---3-3-3---3--------------------------------|
G]-2---2-2-2---5-----0-----0--------------------|
D]---------0-0-----2-----0-------0-----0--------|
A]---------0-0---3-----2-------2-----0-------00-|
E]---------0-0---------------3-----3-----5p4-00-|

Verse


e]-0h2-2-2-0---0---0-0-3------------------------------------|
B]-3---3-3-3---3---3-3-3------------------------------------|
G]-2---2-2-2---0---0-0-0---------0-----0--------------------|
D]-0-------0-0-2---2-2-2-------2-----0-------0-----0--------|
A]-0-------0-0-3---3-3-3-0-2-3-----2-------2-----0-------00-|
E]-0-------0-0---------------------------3-----3-----5p4-00-|

Chorus


||----------------------------------------|
||o---------------------------------------|
||----------------------------------------|
||--5b7-5-3-------------------------------|
||o---------5-3b4-3p0---------------------|
||--------------------3b4(3)b5(3)r-3--|

4x


|---------------------------------------------||
|--------------------------------------------o||
|---------------------------------------------||
|-5b7(5)r(5)p3p0-0--------------------------||
|--------------------3p0---------------------o||
|------------------------3b4(3)b5(3)r-3---||

Bridge


|-2-2-------2---0-0-0-|--2--0-0---3-3-----3-0-|
|-3-3-3-3-3-3-3-3-3-3-|--3--3-3-3-3-3---3-3-3-|
|-2-2-2-2-2-2-2-2-2-2-|--2--2-2-2-5-5-5---5---|
|-0---0-0-0---0-0-0-0-|--0--0-0-0-0-0-0---0---|
|-0---0-0-0---0-0-0-0-|--0------------0-------|
|-0---0-0-0---0-0-0-0-|--0------------0-------|

|
| Gtr III


|---------------------|-----------------------|
|---------------------|-----------------------|
|-7-------------------|-(7)-------------------|
|-7-------------------|-(7)-------------------|
|-5-------------------|-(5)-------------------|
|---------------------|-----------------------|


|-1-1-1-(1)------|------------2--2-3-3-2-0-0-|
|-3-3-3-(3)------|-3-------3--3--3-3-3-3-3-3-|
|-3-3-3-(3)------|-3-x-5-2-2--2--2-2-2-2-2-2-|
|-3-3-3-(3)------|-3-x-5-0-0--0--0-0-0-0-0-0-|
|-1-1-1-(1)------|-1-x-3-0-0-----------------|
|----------------|---------0-----------------|

|


|----------------|---------------------------|
|----------------|---------------------------|
|-3-3-3-(3)------|-3---5---7-(7)-------------|
|-3-3-3-(3)------|-3---5---7-(7)-------------|
|-1-1-1-(1)------|-1---3---5-(5)-------------|
|----------------|---------------------------|


|---0-----0-0-----0-----|--3----3---3-0-----------|-1-1-1--(1)-1-(1)----|
|-3-3-3-3-3-3-3-3---3-3-|--3--3-3---3-3-3-3---3---|-3-3-3--(3)-3-(3)----|
|-2-2-2-2-----2-2---2-2-|--5----5---5---2-2-5-2---|-3-3-3--(3)-3-(3)----|
|-0---0-0-------0---0-0-|--0----0-0-0---0-0-0-0-0-|-3-3-3--(3)-3-(3)----|
|-0---0-0-------0-------|--0--------0-----------0-|-1-1-1--(1)-1-(1)----|
|-0---0-0-------0-------|--0--------0-------------|---------------------|

|


|-----------------------|-------------------------|---------------------|
|-----------------------|-------------------------|---------------------|
|-7---------------------|-(7)---------------------|-3-3-3---------------|
|-7---------------------|-(7)---------------------|-3-3-3---------------|
|-5---------------------|-(5)---------------------|-1-1-1---------------|
|-----------------------|-------------------------|---------------------|

Solo

GTR I


|---------------------------------|------------------|
|---------------------------------|------------------|
|-----0-----0----2----------------|------------------|
|---0-----0---0-----3p0-2---3-5-5-|-7~~~~~~~~~~~~~~~-|
|-1-----3-------------------------|------------------|
|---------------------------------|------------------|

GTR II


|---------------------------------|-2-2-2-0-0---3--|
|-3-----5-----3-(3)-------3-3-5-5-|-3-3-3-3-3---3--|
|-3-----5-----2-(2)-------0-2-5-5-|-2-2-2-0-0---0--|
|-3-----5-----0-(0)-------2-3-5-5-|-0-0-0-2-2---2--|
|-1-----3-------------------------|-------3-3---3--|
|---------------------------------|----------------|

GTR I


|----------------------------------------|---------------------------------|
|----------------------------------------|---------------------------------|
|-------------------------5---5-7b9(7)-|-7r(7)p5-----5-(5)---------|
|-7~~~~~~~~~~~~~~~~~~~~~~---7------------|-----------------7---------------|
|----------------------------------------|---------------------------------|
|----------------------------------------|---------------------------------|

GTR II


|----------------------------------------|-------2-----------3------3------|
|----------------------------------------|-3-----3-----------3------3-3-3--|
|-----0-----0----------------------------|-0h2-2-2-------0---0------0-0-0--|
|---0-----0-------0-----0----------------|-0---0-0-------0---2------2------|
|-3-----2-------0-----0-------0-------0--|-0-------------0---3------3------|
|-------------3-----3-----5-4-0-------0--|-0-------------------------------|

GTR I


|--------------------------------------------------|
|--------------------------------------------------|
|-5------------------------------------------------|
|---7-6-5-3-5b6(5)r(5)-3p0-3---(3)-------0---|
|----------------------------------------3h5p3---3-|
|--------------------------------------------------|

GTR II


|--------------------------------------------------|
|--------------------------------------------------|
|-----0-----------0--------------------------------|
|---0-----0---------------0--------0---------------|
|-3-----2--------------0---------0-----------0-0---|
|--------------------3-------3--------5--4---0-0---|

GTR I


|-------------------------------------------------------------------|
|-------------------------------------------------------------------|
|-------------------------------------------------------------------|
|---------3h5p3h5b6(5)r(5)p3p0-3b4(3)r-0------------------------|
|-5p3h5--------------------------------------3h5p3------------------|
|--------------------------------------------------3h5b7(5)r(5)---|

GTR II


|-------2-2---------------3-----------------------------------------|
|-3-----3-3---------------3-----------------------------------------|
|-2-----2-2---------------0-----------------------------------------|
|-0-----0-0---------------2-----------------------------------------|
|-0-------------0---------3------------------------------------0--2-|
|-0-------------0---------------------------------------------------|

GTR I


|------------------------------------------------------|
|------------------------------------------------------|
|----------------------------------------------5-5-5-5-|
|---------------------5b7(5)---(5)r(5)-----------|
|------------------------------------------------------|
|-5-3pb5r(3)-3pb5r(3)----------------------------------|

GTR II


|------------------------------------------------------|
|------------------------------------------------------|
|------------0-------------0---------------------------|
|---0-----------------0-------------0--------0---------|
|-3----------------2-------------0--------0--------0-0-|
|-----------------------------3--------3-------5-4-0-0-|

GTR I


|-------------------------------|
|-------------------------------|
|-5-2-1-----0---------5-7-------|
|---------------3-5s7-----7s12--|
|-------------5-----------------|
|-------------------------------|

GTR II


|---------3-3---3---------3-----|
|-3---3-3-3-3---3---------3-----|
|-2---2-2-0-0---0---------0-----|
|-0---0-0-2-2---2---------2-----|
|-0---0-0-3-3---3---------3-----|
|-0---0-0-----------------------|

GTR I ~~


|-------------------------------------------------------------------|
|-------------------------------------------------------------------|
|-10----10----10-10-12b14(12)r---12b14(12)r(12)p10----10--------|
|----12-12-12-12---------------------------------------12----12-----|
|-------------------------------------------------------------------|
|-------------------------------------------------------------------|

GTR II


|-------------------------------------------------------------------|
|-------------------------------------------------------------------|
|--------0--------0-------------------------------------------------|
|-----0--------0----------------------------0-----------0-----------|
|--3--------2--------------------0-------------------0----------0-0-|
|----------------------------3-------------------3---------5--4-0-0-|

GTR I


PM----------------------------------|
|-------------------------------------|
|-------------------3-----3---3---5---|
|-----0-----0----2------0-------------|
|---0-----0---0-------2-----3---5-----|
|-1-----3-----------------------------|
|-------------------------------------|

GTR II


|-----------------------------------|
|-3-----5-----3-(3)-------3-3---5-5-|
|-3-----5-----2-(2)-------0-2---5-5-|
|-3-----5-----0-(0)-------2-3---5-5-|
|-1-----3---------------------------|
|-----------------------------------|

End of solo.

This is not by any means as complete as the power tab version, but it’s a very good
for learning the song.

h – hammer-on
p – pull-off
b – bend
r – bend
/ – slide into or out of (from/to “nowhere”)
~ – vibrato
PM – palm muting

Tabbed By Miles. “guitar@stereoradical.com” if you need anything.

To play the this songs, including I Stay Away by Alice in Chains by ukulele, the most crucial basic ukulele chords to learn are C chord, D chord, G chord, and Em chord.
These set you up to play a many of songs, and each of them is easy to learn.

If you are searching for Them Bones ukulele chords, you already come to the best site.
You can play versatile instrument Them Bones using ukulele or guitar.
This song by Alice in Chains can also be played by that instruments.
=

Them Bones chords has rhythm and included in Dirt (1992) album.
You can also get other musical style, including jazz ukulele chords, country music ukulele chords, pop ukulele chords, world music ukulele chords, and rock ukulele chords here.

Them Bones by Alice in Chains Ukulele Chords

INTRO RIFF


G[-7--------------------------------]
D[-7--0----1----2----3----0---------]
A[-5--0(x2)1(x4)2(x4)3(x2)0(x2)-----] X4
D[----0----1----2----3----0---------]

VERSE RIFF


G[-7------------------]
D[-7--0-1-1-2-2-0-----]
A[-5--0-1-1-2-2-0-----] X8
D[----0-1-1-2-2-0-----]

CHORUS


G[-3-3--3-3-3--2-2--2--2-2-2--5-5--4-4-4--3-3--2-2--]
D[-3-3--3-3-3--2-2--2--2-2-2--5-5--4-4-4--3-3--2-2--]
A[-1-1--1-1-1--0-0--0--0-0-0--3-3--2-2-2--1-1--0-0--] X1
D[--------------------------------------------------]

SOLO


E[--------------------------8-8-8--6-5-6--5-------------]
B[-8-^-8p6----------------5-----------------6-----------]
G[---------7-5--------------------------------7---------]
D[-------------7-5-3-5v-3---------------------------7-8-]
A[----------------------------------------------7-8-----]
D[------------------------------------------------------]
E[---------5-6-5--------------------------------]
B[---5-6-5-------9-10--12-^-10-12-10-9--9-10-^--]
G[-5--------------------------------------------]
D[----------------------------------------------]
E[-15-^-15-14----14----14----20-^-20-19-18-19-----------]
B[-------------15---15----15-----------------20-^--18-17]
G[------------------------------------------------------]
D[------------------------------------------------------]
E[-13H15-15P13----] E[-15-^-15-14-----13H15-15P13----]
B[-------------15-]X8 B[------------15--------------15-]
G[----------------] G[-------------------------------]
D[----------------] D[-------------------------------]
E[------------------------------------------------------]
B[------------------------------------------------------]
G[-12-^V-12^-12^-12^-12-10-12-10--------12P10-10H12-----]
D[------------------------------12-10-12------------12/3]

THE SOLO IS NOT PERFECT BUT IS ABOUT RIGHT
AND HERE IS A GUIDE FOR IT

H HAMMER ON
P PULL OFF
V VIBRATO
/ SLIDE DOWN
^ BEND UP TWO PITCHES

SONG STRUCTURE
INTRO RIFF
VERSE
CHORUS
INTRO RIFF
VERSE
CHORUS
INTRO RIFF
SOLO ( WITH INTRO RIFF UNDERNEATH )
VERSE
CHORUS

To play the this songs, including Them Bones by Alice in Chains by ukulele, the most crucial basic ukulele chords to learn are C chord, D chord, G chord, and Em chord.
These set you up to play a many of songs, and each of them is easy to learn.

  • 1
  • 2